Oops, an error
Loading. Please wait.

Honto No Jibun Tab

676 views 1 this week
2 commentsread comments
1 2 3 4 5
please rate
add to favorites
launch autoscroll
font size
0
reset
how to read this tab
guitar tuner
Tab Pro tools
  • play this tab
  • loop segment
  • change instrument
  • show fretboard
  • metronome
×
Best way to learn
"Honto No Jibun"
Autoscroll
slow
fast
+/-
esc
set tempo
stop
Contributor
Honto No Jibun
by Buono!
tabbed by manOutOfTime
key: F

-------------------------------------------88--6--|--------------------|
-6-5-6-8--6--5--6-5-6-8--6--5--6-5-6-8--6---------|--------------------|
--------------------------------------------------|--------------------|
--------------------------------------------------|--------------------|
--------------------------------------------------|--------------------|
--------------------------------------------------|--------------------|
 F              C              Dm          Bb

--------------------------------/12--/13---------|---------------------|
-6-5-6-8--6--5--6-5-6-8--6--5--------------------|---------------------|
-------------------------------------------------|---------------------|
-------------------------------------------------|---------------------|
-------------------------------------------------|---------------------|
-------------------------------------------------|---------------------|
 F              C               Dm

*Verse1*
 PM
-----------------------------------------------------------------|-----|
-1-----1-----1---1-----1-----1---3-----3-----3---1-----1-----1---|-----|
---2-----2-----2---0-----0-----0---2-----2-----2---3-----3-----3-|-----|
-----3-----3---------2-----2---------0-----0---------3-----3-----|-----|
-----------------------------------------------------------------|-----|
-----------------------------------------------------------------|-----|
 F               C               Dm              Bb
Ikiteru kagiri ishikoro darake demo

-----------------------------------------------------------------|-----|
-1-----1-----1---1-----1-----1---1-----1-----1---1-----1-----1---|-----|
---2-----2-----2---0-----0-----0---3-----3-----3---3-----3-----3-|-----|
-----3-----3---------2-----2---------3-----3---------3-----3-----|-----|
-----------------------------------------------------------------|-----|
-----------------------------------------------------------------|-----|
 F               C               Bb              Bb
ooki na koe de ganbare! Ganbare! (Ganbare!)

-----------------------------------------------------------------|-----|
-1-----1-----1---1-----1-----1---3-----3-----3---1-----1-----1---|-----|
---2-----2-----2---0-----0-----0---2-----2-----2---3-----3-----3-|-----|
-----3-----3---------2-----2---------0-----0---------3-----3-----|-----|
-----------------------------------------------------------------|-----|
-----------------------------------------------------------------|-----|
 C               C               Dm              Bb
Tomaru koto nai uchira no jinsee

-----------------------------------------------10-8hhh---10-8hhh-|-----|
-1-----1-----1---1-----1-----1---1-------6-8-6---------6---------|-----|
---2-----2-----2---0-----0-----0---3-----------------------------|-----|
-----3-----3---------2-----2---------3---------------------------|-----|
-----------------------------------------------------------------|-----|
-----------------------------------------------------------------|-----|
 F               C               Bb
dakara owaranai uta wo utaou

*Prechorus*

---------------|-------8--------|-------6----|------8-8-8-------|------|
-10----10------|-------8--------|-------6----|------101010------|------|
-10----10------|-------9--------|-------7----|------101010------|------|
-10----10------|-------10-------|-------8----|------101010------|------|
----8----------|----------------|------------|------------------|------|
---------------|-8-8------------|-6-6--------|---1--------------|------|
 F               C                Bb             F
Waga michi wo tsukisusume        Detarame na kyara demo ii

-------5------|-------5--------|-------------|-8---------------|-------|
-------5------|-------6--------|-------------|-8---------------|-------|
-------5------|-------7--------|-------------|-9---------------|-------|
-------7------|-------7--------|-------------|-10--------------|-------|
--------------|-5-5------------|-------------|-10--------------|-------|
-5-5----------|----------------|-8-8---8-8---|-8---------------|-------|
 Am             Dm               C             C
Rokudenashi demo aishiterun da                 Mai daarin

*Chorus*

-8hhhhhhhhhhh-|-6--5--3h5hhhhhh|hhhhhhhhhhhh-|-3--1--0h1hhhhhhh|-------|
--------------|----------------|-------------|-----------------|-------|
--------------|----------------|-------------|-----------------|-------|
--------------|----------------|-------------|-----------------|-------|
--------------|----------------|-------------|-----------------|-------|
--------------|----------------|-------------|-----------------|-------|
     F           C              Dm        Am
 Bakayaro! Honto no jibun       Itai koto itte yare

-hhhhhhhhhhhh-|----------------|-1hh-0hh-----|-------------------------|
--------------|-1hhhhh-3hhhhhh-|----------1h-|-------------------------|
--------------|----------------|-------------|-------------------------|
--------------|----------------|-------------|-------------------------|
--------------|----------------|-------------|-------------------------|
--------------|----------------|-------------|-------------------------|
     Bb             F       Gm              C
 Hamidashite kun da yo Chikazuite kun da yo yume ni

-8hhhhhhhhhhhh|-6--5--3h5hhhhhh|hhhhhhhhhhh--|-3--1--0---------|-------|
--------------|----------------|-------------|--------1hhhhhhhh|-------|
--------------|----------------|-------------|-----------------|-------|
--------------|----------------|-------------|-----------------|-------|
--------------|----------------|-------------|-----------------|-------|
--------------|----------------|-------------|-----------------|-------|
     F           C              Dm            Am
 Konoyaro! Honto no jibun       Dete koi yo kakuretenai

--------------|-6hhhhh-5hhhhhh------------------------|
-hhhhhhhhhhhh-|---------------------------------------|
--------------|-10xxx-10-xxx-10-xxx-10-xx-10-10-------|
--------------|-10xxx-10-xxx-10-xxx-10-xx-10-10-------|
--------------|-8-xxx-8--xxx-8--xxx-8--xx-8--8--------|
--------------|---------------------------------------|
Bb       F            Gm   F
de    Oh yeah        Ima sugu

-------------------------------------------8----8-|--------------------|
-6-5-6-8--6--5--6-5-6-8--6--5--6-5-6-8--5-6--5-6--|--------------------|
--------------------------------------------------|--------------------|
--------------------------------------------------|--------------------|
--------------------------------------------------|--------------------|
--------------------------------------------------|--------------------|
 F              C              Dm          Bb

*Verse2*

--------------|----------------|-------------|-------------|-----------|
--------------|----------------|-------------|-------------|-----------|
--------------|-5----5----5----|-7----7----7-|-3----3----3-|-----------|
------3----3--|-5----5----5----|-7----7----7-|-3----3----3-|-----------|
------3----3--|-3-33-3--3-3----|-5-55-5--5-5-|-1-11-1--1-1-|-----------|
-1-11-1--1-1--|----------------|-------------|-------------|-----------|
 F              C                Dm            Bb
Yowaki na ore ga iya na hi mo aru kedo

---------------|---------------|----------------|----------------------|
---------------|---------------|----------------|----------------------|
---------------|-5----5----5---|-3----3-----333-|----------------------|
------3----3---|-5----5----5---|-3----3-----333-|----------------------|
------3----3---|-3-33-3--3-3---|-1-11-1--1--111-|----------------------|
-1-11-1--1-1---|---------------|----------------|----------------------|
 F               C              Bb
sore de aitsu no kimochi ga wakarun da (Wakaru)

-----------------------------------------------------------------|-----|
-1-----1-----1---1-----1-----1---3-----3-----3---1-----1-----1---|-----|
---2-----2-----2---0-----0-----0---2-----2-----2---3-----3-----3-|-----|
-----3-----3---------2-----2---------0-----0---------3-----3-----|-----|
-----------------------------------------------------------------|-----|
-----------------------------------------------------------------|-----|
 F               C               Dm              Bb
Kakko tsukeru ore hiichau keredo

-------------------------------------------12-13-12--------------|-----|
-1-----1-----1---1-----1-----1---1------13----------13-----------|-----|
---2-----2-----2---0-----0-----0---3-----------------------------|-----|
-----3-----3---------2-----2---------3---------------------------|-----|
-----------------------------------------------------------------|-----|
-----------------------------------------------------------------|-----|
 F               C               Bb
dakara makezu ni mata ganbarerun da

---------------|-------8--------|-------6----|------8-tr--------|------|
-10----10------|-------8--------|-------6----|------10tr--------|------|
-10----10------|-------9--------|-------7----|------10tr--------|------|
-10----10------|-------10-------|-------8----|------10tr--------|------|
---8-----------|----------------|------------|------------------|------|
---------------|-8-8------------|-6-6--------|---1--------------|------|
 F                    C          Bb             F
Doshaburi mo hare mo aru Chiccha na koto ki ni sun na

-------5------|-------5--------|-------------|-8---------------|-------|
-------5------|-------6--------|-------------|-8---------------|-------|
-------5------|-------7--------|-------------|-9---------------|-------|
-------7------|-------7--------|-------------|-10--------------|-------|
--------------|-5-5------------|-------------|-10--------------|-------|
-5-5----------|----------------|-8-8---8-8---|-8---------------|-------|
Am             Dm                C
Dekkai ashita no tame ni kisu shite agetai

*Chorus*

-8hhhhhhhhhhh-|-6--5--3h5hhhhhh|hhhhhhhhhhhh-|-3--1--0h1hhhhhhh|-------|
--------------|----------------|-------------|-----------------|-------|
--------------|----------------|-------------|-----------------|-------|
--------------|----------------|-------------|-----------------|-------|
--------------|----------------|-------------|-----------------|-------|
--------------|----------------|-------------|-----------------|-------|
     F           C              Dm        Am
Bakayaro! Honto no jibun    Yaritai koto yatte yare

-hhhhhhhhhhhh-|----------------|-1hh-0hh-----|-------------------------|
--------------|-1hhhhh-3hhhhhh-|----------1h-|-------------------------|
--------------|----------------|-------------|-------------------------|
--------------|----------------|-------------|-------------------------|
--------------|----------------|-------------|-------------------------|
--------------|----------------|-------------|-------------------------|
     Bb             F       Gm              C
Tobidashite kun da yo Tobikoete kun da yo yume ni

-8hhhhhhhhhhhh|-6--5--3h5hhhhhh|hhhhhhhhhhh--|-3--1--0---------|-------|
--------------|----------------|-------------|--------1hhhhhhhh|-------|
--------------|----------------|-------------|-----------------|-------|
--------------|----------------|-------------|-----------------|-------|
--------------|----------------|-------------|-----------------|-------|
--------------|----------------|-------------|-----------------|-------|
     F           C              Dm            Am
Konoyaro! Honto no jibun        Daijoubu sa kowagaranai

--------------|-6hhhhh-5hhhhhh------------------------|
-hhhhhhhhhhhh-|---------------------------------------|
--------------|-10xxx-10-xxx-10-xxx-10----------------|
--------------|-10xxx-10-xxx-10-xxx-10----------------|
--------------|-8-xxx-8--xxx-8--xxx-8-----------------|
--------------|---------------------------------------|
Bb    F     Gm   F
de Oh yeah Ima sugu

*Solo*

---------------------9-||------------------------||---------------------9-||
---------------------9-||--------------------9\tr||---------------------9-||
---------------------9-||------------------------||---------------------9-||
---------------------9-||------------------------||---------------------9-||
-1----------1-1--4-1---||-1----------1-1--4-1----||-1----------1-1--4-1---||
---4-1--1-4------------||---4-1--1-4-------------||---4-1--1-4------------||
                   x3                                                   x3

------------------------|
------------------------|
------------------------|
------------------------|
-1----------1-1---------|
---4-1--1-4-------------|

*Verse 3*

-------1---|-------1---|-------1---|-------1---|-----------------------|
-----1-----|-----1-----|-----2-----|-----1-----|-----------------------|
---2-------|---2-------|---2-------|---2-------|-----------------------|
-3---------|-2---------|-0---------|-----------|-----------------------|
-----------|-----------|-----------|-3---------|-----------------------|
-----------|-----------|-----------|-----------|-----------------------|
 F           C           Dm          Am
Nanni mo nai basho kara  Nani ka ga hajimaru

-------1---|-------1---|-------1---|-----------|-----------------------|
-----1-----|-----1-----|-----1-----|-1---------|-----------------------|
---2-------|---2-------|---2-------|-----------|-----------------------|
-----------|-----------|-----------|-----------|-----------------------|
-1---------|-0---------|-----------|-----------|-----------------------|
-----------|-----------|-3---------|-----------|-----------------------|
 Bb          F           Gm          C
Dakishimetai daro        Kakedashitain daro yume he


*Chorus*

-8hhhhhhhhhhh-|-6--5--3h5hhhhhh|hhhhhhhhhhhh-|-3--1--0h1hhhhhhh|-------|
--------------|----------------|-------------|-----------------|-------|
--------------|----------------|-------------|-----------------|-------|
--------------|----------------|-------------|-----------------|-------|
--------------|----------------|-------------|-----------------|-------|
--------------|----------------|-------------|-----------------|-------|
     F           C              Dm        Am
 Bakayaro! Honto no jibun       Itai koto itte yare

-hhhhhhhhhhhh-|----------------|-1hh-0hh-----|-------------------------|
--------------|-1hhhhh-3hhhhhh-|----------1h-|-------------------------|
--------------|----------------|-------------|-------------------------|
--------------|----------------|-------------|-------------------------|
--------------|----------------|-------------|-------------------------|
--------------|----------------|-------------|-------------------------|
     Bb             F       Gm              C
 Hamidashite kun da yo Chikazuite kun da yo yume ni

-8hhhhhhhhhhhh|-6--5--3h5hhhhhh|hhhhhhhhhhh--|-3--1--0---------|-------|
--------------|----------------|-------------|--------1hhhhhhhh|-------|
--------------|----------------|-------------|-----------------|-------|
--------------|----------------|-------------|-----------------|-------|
--------------|----------------|-------------|-----------------|-------|
--------------|----------------|-------------|-----------------|-------|
     F           C              Dm            Am
 Konoyaro! Honto no jibun       Dete koi yo kakuretenai

--------------|-6hhhhh-5hhhhhh------------------------|
-hhhhhhhhhhhh-|---------------------------------------|
--------------|-10xxx-10-xxx-10-xxx-10-xx-10-10-------|
--------------|-10xxx-10-xxx-10-xxx-10-xx-10-10-------|
--------------|-8-xxx-8--xxx-8--xxx-8--xx-8--8--------|
--------------|---------------------------------------|
Bb       F            Gm   F
de    Oh yeah        Ima sugu

-------------------------------------------88--6--|--------------------|
-6-5-6-8--6--5--6-5-6-8--6--5--6-5-6-8--6---------|--------------------|
--------------------------------------------------|--------------------|
--------------------------------------------------|--------------------|
--------------------------------------------------|--------------------|
--------------------------------------------------|--------------------|
 F              C              Dm          Bb

-------------------------------------------8----8-----8\--------------|
-6-5-6-8--6--5--6-5-6-8--6--5--6-5-6-8--5-6--5-6--5-6-----------------|
----------------------------------------------------------------------|
----------------------------------------------------------------------|
----------------------------------------------------------------------|
----------------------------------------------------------------------|
 F              C              Dm          Bb
comments
We did not receive enough feedback on this tab! Please rate:
print report bad tab
1 2 3 4 5
2 comments total.
+1 reply
SilverSkyline wrote on November 29 2012, 08:15 pm

Awesome tab, man! Gotta love Shugo Chara. :P 5 Stars fo' sure!

0 reply
man out of time wrote on November 30 2012, 02:51 am

Thanks I appreciate it man. I think I've done all the stuff Buono did for Shugo Chara so hope you like those too.

I want to post or [tab]
guest
You may want to rate the tab now too:
select rating
Please do not post tabs as comments. Select "correction" instead!