Oops, an error
Loading. Please wait.

Kimi Ga Ireba tab

by Buono!
3,888 views 1 this week
no commentswrite comment
1 2 3 4 5
3 more votes to show rating
add to favorites
×
Save as Personal and add changes to this tab that will be seen only by you. Learn more ›
×
You can save this tab as Personal to edit and correct it or add notes. All changes will be seen only by you. Learn more »
launch autoscroll
font size
0
reset
how to read this tab
guitar tuner
edit
Autoscroll
slow
fast
+/-
esc
set tempo
stop
Kimi Ga Ireba
by Buono!
tabbed by manOutofTime

INTRO:
E|--2-----2-1-----1-------------------------------2-2----------------7----------|
B|------4-------2---4-----4-2-----2-0---------2-4---4---------------7-----------|
G|----3-------1---------3-------3---------3-4-------4------8-------8------------|
D|--------------------4-------3-------1-4-----------4----9---9----9-------------|
A|--------------------------------------------------2--9-------9----------------|
E|------------------------------------------------------------------------------|
  D#m     C#      B       Bbm       G#m           B

VERSE:
     B             F#     Bbm
Kimi ga ireba arukidaseru yo
  G#m   C#       F#    Bbm
Donna kanashii yoru mo
  G#m             Bbm          B
Hoo tsutau namida afureru mama ni

E|------------
B|-7----------
G|---10-8-10--
D|------------
A|------------
E|------------

     B                F#     Bbm
Kimi ga ireba tsuyoku nareru yo
  G#m       C#      F#    Bbm
Kakushite kita omoi mo
  G#m            Bbm                 B    C#   D
Kazaranai kotoba de hanaseru ki ga suru

D#m        Bbm      D#m        Bbm     B                   C#  D  E
Doushite darou tsunagu yubi ga areba mune wa itsumo atatakai

CHORUS:
  D         E       C#m     F#m
Kono yo ni umareta ureshisa wo
  D        E     C#m    F#m
Kono yo wo ikiru tsurasa wo
  Bm    D     C#m    F#m  G#    G#m     C#      B   C#
Dare mo ga kanji nagara kotae sagashiteiru kedo
  D         E       C#m    F#m
Ashiato no tsuitenai michi wo
  D        E     C#m       F#m
Mada fumidasezu ni ite mo
  Bm      D     C#m     F#m   D         D C#m Bm C#m-D   
Bokutachi wa mirai ni mukai ippo zutsu arui   te i   ru

VERSE:
     B             F#      Bbm
Kimi ga ireba shinjirareru yo
  G#m   C#       F#    Bbm
Akirame sae shinakereba
  G#m           Bbm             B    C#   D
Kibou ga itsudatte karenai koto wo

D#m       Bbm     D#m     Bbm      B              C#      D  E
Moshi omoigakenai koto ga okite mo kitto, kitto daijoubu

CHORUS:
  D         E       C#m     F#m
Tashika na mono nante nai kedo
  D        E     C#m    F#m
Nukumori wa tashika ni aru
   Bm    D     C#m    F#m  G#    G#m     C#      B   C#
Kimi wo omou kimochi de toki wo koete ikeru kara
  D         E       C#m     F#m
Mada katachi ni naranai negai
  D        E     C#m        F#m
Mada koe ni naranai ai
  Bm          C#m             D               D C#m Bm C#m-D 
Bokutachi wa mirai ni mukai hitotsu zutsu kanaete yuku

SOLO:
E|-----------------------------------|--------------------------------------|---|
B|-13p12h13-10h12p10-----10----------|--------------------------------------|---|
G|--------------------12----12vvvvv\-|-9h10h12p10p9-------------------------|---|
D|-----------------------------------|--------------12-10---12p10-12/14vvv--|---|
A|-----------------------------------|--------------------------------------|---|
E|-----------------------------------|--------------------------------------|---|


E|---------------------------------12--------------------------|----------------|
B|---------7-8-10vv--12-10-12b14------14r12--10-12-10vvv-12/14-|----------------|
G|-7-9-7-9-----------------------------------------------------|----------------|
D|-------------------------------------------------------------|----------------|
A|-------------------------------------------------------------|----------------|
E|-------------------------------------------------------------|----------------|


E|---------------------------16br--16vvvv-|-------------------------------------|
B|-15/17-19--17h19p17-15------------------|-----------------------15vv-17vv-19--|
G|-----------------------18---------------|-11---------13-----------------------|
D|----------------------------------------|----9-11-13----11-13-15--------------|
A|----------------------------------------|-------------------------------------|
E|----------------------------------------|-------------------------------------|

CHORUS:
  D         E       C#m     F#m
Kono yo ni umareta ureshisa wo
  D        E     C#m        F#m
Kono yo wo ikiru tsurasa wo
  Bm    D     C#m    F#m  G#    G#m     C#      B   C#
Dare mo ga kanji nagara kotae sagashiteiru kedo
  D         E       C#m     F#m
Ashiato no tsuitenai michi ni
  D        E     C#m        F#m
Ima hizashi ga furisosogu
  Bm             C#m          D         D C#m Bm C#m-D 
Bokutachi wa mirai ni mukai ippo zutsu arui   te yu  ku

SOLO 2:
E|---------------------12--12---------------------------------|-----------------|
B|-7h10----12p10-12b14---14--14r12-10-9--9h10p9---------------|-----------------|
G|----------------------------------------------9---------9vv-|-----------------|
D|------------------------------------------------11vvvvv-----|-----------------|
A|------------------------------------------------------------|-----------------|
E|------------------------------------------------------------|-----------------|

E|------------------------------------------------12----------------13b14------|
B|------------------------------12-14-12-14-15------15p14p12-------------------|
G|-------------11----11-13-14-13-----------------------------14-14-------------|
D|-12-11-12-14----14-----------------------------------------------------------|
A|-----------------------------------------------------------------------------|
E|-----------------------------------------------------------------------------|

E|-14-16-17--16-----18b19---18---------------------------------------12-12-------|
B|--------------15-------------15vvvv---15p14p12-14---15p12-13b14h---------13-12--|
G|-------------------------------------------------------------------------------12-14|
D|-------------------------------------------------------------------------------|
A|-------------------------------------------------------------------------------|
E|-------------------------------------------------------------------------------|

E|----------17vv----------17b-19vvvvvv-|-17vv-16vv-14vv-16v-17hhhvvv-|----------|
B|-15-14-15------15-14-15--------------|-----------------------------|----------|
G|-------------------------------------|-----------------------------|----------|
D|-------------------------------------|-----------------------------|----------|
A|-------------------------------------|-----------------------------|----------|
E|-------------------------------------|-----------------------------|----------|

E|----------------------|-------------------------------------------------------|
B|-/19-17hhhhhvvvvvvv\--|-------------------------------------------------------|
G|----------------------|-------------------------------------------------------|
D|----------------------|-------------------------------------------------------|
A|----------------------|-------------------------------------------------------|
E|----------------------|-------------------------------------------------------|

            
            
Suggest correction
Creating personal tab
Creating personal tab
You can edit any tab online and save it as your Personal.

You can edit, replace or remove any tab part or add personal notes – all changes will be seen only by you.

Personal tabs can be accessed anytime from any device, even offline.
Learn more »
Give kudos to tab author, rate the tab!
1 2 3 4 5
comments
print report bad tab
guest
You may want to rate the tab now too:
select rating
Wanna post a correction for this tab? Suggest correction