Oops, an error
Loading. Please wait.

Rock No Kamisama ukulele

by Buono!
70 views 1 this week
no commentswrite comment
1 2 3 4 5
3 more votes to show rating
add to favorites
×
Save as Personal and add changes to this tab that will be seen only by you. Learn more ›
×
You can save this tab as Personal to edit and correct it or add notes. All changes will be seen only by you. Learn more »
launch autoscroll
font size
0
reset
transpose
0
reset
display chords
guitar tuner
edit
Autoscroll
slow
fast
+/-
esc
set tempo
stop
Strumming
There is no strumming pattern for this song yet. and get +5 IQ
Rock No Kamisama
by Buono!
tabbed by manOutOfTime

**Updated**

D#        Bb           C#
Aozora ni dokonjou misetsukete yare

INTRO RIFF:
D#D# D#D# D#D# D#D# D#-F
D#D# D#D# D#D# D#D# Bb

G#                       Gm
Taiikukan no ura wo toorinukeru kaze ga
Fm                             D#
hetakuso na gitaa tooku made hakonde iku yo

G#
Ato tooka de bunkasai
Gm                 Cm
yatto mitsuketa menbaa
      G#           Bb              D#  Bb  D#
kitto rokku no kamisama ga awasete kuretan da

D#m
Sannin jan dakedo ii jan
Gm          Cm
ii kyoku ga dekita yo
G#            Gm
chotto setsunai shi wo tsuketan da
Cm        G# G#  G#-Bb
dou kana? De mo  ikeru

Bb Bb C

Bb        C          F
Tomaranai waki agaru shoudou merodi
Bb    C     Dm   C       F
ka ki na ra se karadajuu de
Bb        C            F        Bb  C
nagareboshi tsukamaete My Dream kanaetai
Bb Am            Dm     Gm         C
ao zora ni dokon jou misetsukete yare
                D#
Rock ‘ n ‘ roll Girls

*Intro riff* x2

G#                       Gm
Akogare no senpai mo mi ni kite kureru kana#
Fm                             D#
itsumo to chigau sannin wa dare yori kureijii kuuru

G#
Chiisa na suteeji demo
Gm                 Cm
atashi tachi ni wa budookan
      G#           Bb              D#  Bb  D#
kitto rokku no kamisama ga mamotte kurerun da

D#m
kaunto ga hajimattara
Gm          Cm
miminari uzun naka
G#            Gm
chotto zureta rizumu de mo ii
Cm        G# G#  G#-Bb
Goo na biito te ni irero

Bb Bb C

Bb        C          F
Wasurenai kono kimochi yuujou merodi
Bb    C     Dm   C      F
na ri hi bi ke mune no oku de
Bb        C            F        Bb  C
mukai kaze sakaratte Freedom tsukamitai
Bb Am            Dm     Gm         C
aozora ni do konjou misetsukete yare

Rock ‘ n ‘ roll Girls

SOLO:
----------------|-----------|-----------|------------|------------|-15b17-----|
----------------|-----------|-----10^---|------------|-8-10-11tr--|-----------|
-13b14--12v\0---|-11b12-10--|-9-7-------|-11b12--10--|------------|-----------|
----------------|-----------|---------7-|------------|------------|-----------|
----------------|-----------|-----------|------------|------------|-----------|
----------------|-----------|-----------|------------|------------|-----------|

-15b17--15-13-|----------------|----------------------------------------------|
--------------|-8/12\8/13-13v--|----------------------------------------------|
--------------|----------------|----------------------------------------------|
--------------|----------------|----------------------------------------------|
--------------|----------------|----------------------------------------------|
--------------|----------------|----------------------------------------------|

Bb        C          F
Tomaranai waki agaru shoudou merodi
Bb    C     Dm   C       F
ka ki na ra se karadajuu de
Bb        C            F        Bb  C
nagareboshi tsukamaete My Dream kanaetai
Bb Am            Dm     Gm         C
ao zora ni dokon jou misetsukete yare

Bb        C          F
Wasurenai kono kimochi yuujou merodi
Bb    C     Dm   C      F
na ri hi bi ke mune no oku de
Bb        C            F        Bb  C
mukai kaze sakaratte Freedom tsukamitai
Bb Am            Dm      Gm
ao zora ni do konjou misetsukete yare
         C
sekai de ichiban!
                D#
Rock ‘ n ‘ roll Girls

F F F F F F F G x3
F F F F F F CmCmCmCm

------------------------------------------------------------------------------|
-11-13----8-10----------------------------------------------------------------|
-----------------9-10--------------8-9-10vvvv---------------------------------|
-------------------------8-9-10-11-----10vvvv---------------------------------|
---------------------------------------8vvvvv---------------------------------|
------------------------------------------------------------------------------|

            
            
Suggest correction
Creating personal tab
Creating personal tab
You can edit any tab online and save it as your Personal.

You can edit, replace or remove any tab part or add personal notes – all changes will be seen only by you.

Personal tabs can be accessed anytime from any device, even offline.
Learn more »
Give kudos to tab author, rate the tab!
1 2 3 4 5
comments
print report bad tab
guest
Wanna post a correction for this tab? Suggest correction