Oops, an error
Loading. Please wait.

Tabidachi No Uta Tab

563 views 1 this week
no commentswrite comment
1 2 3 4 5
please rate
add to favorites
launch autoscroll
font size
0
reset
how to read this tab
guitar tuner
Autoscroll
slow
fast
+/-
esc
set tempo
stop
Help us to improve Ultimate-Guitar.com Take our survey!
×
Tabidachi No Uta (Buono!)
tabbed by manOutOfTime
Key: G

C/D#    xx1010

Intro:
------------------------------------------------------------------------------|
---------4-4-4-4-5-5-5-5-4-4-4-4----------------------------------------------|
-7-7-7-7-7-7-7-7-7-7-7-7-7-7-7-7----------------------------------------------|
------------------------------------------------------------------------------|
------------------------------------------------------------------------------|
------------------------------------------------------------------------------|

    G    G/F#    Em       Em7     C       C/B   Am    D
Kimi to utaou TABIDACHI no uta Kowagaranai de Aruite yukou
  C        D       Bm       Em     Am       Am7        D
Hitori dakedo Hitori ja nai sa Yumemiru kagiri Yo wa akeru

-------------------------------------------------------||--------------------|
-------3------------3------------3------------3--------||-------3------------|
---0-----0------0-----0------0-----0------0------------||---0-----0-----0----|
-0---0------0-1---1------1-2---2------2-1---1---/4-3-2-||-0---0-----0-1---1--|
-------------------------------------------------------||--------------------|
-------------------------------------------------------||--------------------|


----------5/7-5---------------------|----------------------------------------|
-3-----1--------5\3------4-4\1--6vv-|----------------------------------------|
---0---0------------5v--------------|----------------------------------------|
-----1-2----------------------------|----------------------------------------|
-------3----------------------------|----------------------------------------|
------------------------------------|----------------------------------------|


G         Bm       C          C/D#
Tsujikaze fuke Nakitai kokoro ni
G        Bm          C
Tsuki mo nani mo nai yozora wo miageta
G           Bm          C    C/D#
Daijoubu da to Jibun no mune ni
G         Bm    C
Tatta hitokoto Ieba iinda

Bm                 C
Itami ya namida ga Ippai aru no wa
Bm                   C       D
Kibou to yume ga Ippai aru kara

     G    G/F#    Em       Em7     C       C/B   Am    D
Kimi to utaou TABIDACHI no uta Kowagaranai de Aruite yukou
  C        D       Bm       Em     Am       Am7   D
Hitori dakedo Hitori ja nai sa Yumemiru kagiri Yo wa akeru
              G
Kitto omoi wa todoku

----------------------------------------|------------------------------------|
-11/15-14-13-12-------------------------|------------------------------------|
----------------15-14-13-12-------------|------------------------------------|
----------------------------16-15-14-13-|------------------------------------|
----------------------------------------|------------------------------------|
----------------------------------------|------------------------------------|

-----------------------------|
-------3------------3--------|
---0-----0------0-----0------|
-0---0------0-1---1------1---|
-----------------------------|
-----------------------------|

------7\5-3-------------------|----------------------------------------------|
-5v---------5-3------4-4--6vv-|----------------------------------------------|
----------------5v------------|----------------------------------------------|
------------------------------|----------------------------------------------|
------------------------------|----------------------------------------------|
------------------------------|----------------------------------------------|

G         Bm       C          C/D#
Doshaburi no machi itsuka go hareta
G        Bm          C
Watashi no bukiyou na kokoro wa
G         Bm       C          C/D#
Akichi de hirotta HEN na katachi no
G        Bm          C
Ishi ni niteiru Sonna ki ga shita

Bm                 C
Egao mo nakigao mo Kimi no mono
Bm                 C             D
Suki mo kirai mo Zenbu enbu kimi no mono

     G    G/F#    Em       Em7     C       C/B   Am    D
Koe wo agete Naite mo ii yo Itsuka egao no Kimi ni modoreru
  C        D       Bm       Em     Am       Am7        D
Mieru sekai ga Subete ja nai sa Ienai mono wo Sagashi ni yukou

     G    G/F#    Em       Em7     C       C/B   Am    D
Kimi to utaou TABIDACHI no uta Kowagaranai de Aruite yukou
  C        D       Bm       Em     Am       Am7   D
Hitori dakedo Hitori ja nai sa Yumemiru kagiri Yo wa akeru
              G
Kitto omoi wa todoku

SOLO
------------------------------------------------------------15-13-------------|
-15p14h15---13/18-15--13--------13-------------------14-15----------15--------|
-------------------------12--------12-/16v-----16-17-------------------17-15--|
----------------------------12------------------------------------------------|
------------------------------------------------------------------------------|
------------------------------------------------------------------------------|

---------------------------------------------------|-------------------------|
------------------------15---------15---8v-10-7vvv-|-------------------------|
-14-15p14p12---17-15-17------17-15-----------------|-------------------------|
---------------------------------------------------|-------------------------|
---------------------------------------------------|-------------------------|
---------------------------------------------------|-------------------------|

     G    G/F#    Em       Em7     C       C/B   Am    D
Kaze ga fuiteru Kumo ga yonderu Koe ga kikoeru Asu ga hajimaru
  C        D       Bm       Em     Am       Am7   D
Mieru sekai ga Subete ja nai sa Mienai mono wo Sagashi ni yukou

     G    G/F#    Em       Em7     C       C/B   Am    D
Kimi to utaou TABIDACHI no uta Kowagaranai de Aruite yukou
  C        D       Bm       Em     Am       Am7   D
Hitori dakedo Hitori ja nai sa Yumemiru kagiri Yo wa akeru
              G
Kitto omoi wa todoku

------------------------|----------------------|-----------------------------|
-/12--10----10----------|-/12--10----10--------|-/12--10----10---------------|
---------12----12-8vvv--|---------12----12-9vv-|---------12----12-8vvv-------|
------------------------|----------------------|-----------------------------|
------------------------|----------------------|-----------------------------|
------------------------|----------------------|-----------------------------|

     G    G/F#    Em       Em7     C       C/B   Am    D        x4
Lalalalalalala... 
Suggest correction
Give kudos to tab author, rate the tab!
1 2 3 4 5
comments
print report bad tab
guest
You may want to rate the tab now too:
select rating
Wanna post a correction for this tab? Suggest correction