Oops, an error
Loading. Please wait.

Everybody Is Easy tab

589 views 1 this week
3 commentsread comments
1 2 3 4 5
2 more votes to show rating
add to favorites
×
Save as Personal and add changes to this tab that will be seen only by you. Learn more ›
×
You can save this tab as Personal to edit and correct it or add notes. All changes will be seen only by you. Learn more »
launch autoscroll
font size
0
reset
how to read this tab
guitar tuner
edit
Autoscroll
slow
fast
+/-
esc
set tempo
stop
Author
This is the single on the new album "Mercy"
any comments to crob@mythologyrules.com or meldelray45@mac.com
Intro/Verse
E   ---------------------------------------------|
B   ---------------------------------------------|
G   ---------------------------------------------|
D   ---------------------------------------------|
A   -----5-5-5-7-5-5-5-7-5-5-5---10-10-9-7-5-----|
E   -----3-3-3-3-3-3-3-3-3-3-3---8--8--7-5-3----|

pre-chorus: (stuck in the middle)
E-----------------------------------------------|
B--33333-555555---------777777------------------|
G--44444-555555-444444-777777-------------------|
D--55555-555555-555555-777777-------------------|
A--22222-333333-555555-555555-------------------|
E----------------333333-------------------------|

Twisted Riff:
A---5-3-2---5-3-2---5-3-2----|
E---------0-------1--------3-|

Chorus: We sink We swim
E-----------------------------------------------|
B---33333-555555--------777777------------------|
G---44444-555555-44444-777777-------------------|
D---55555-555555-55555-777777-------------------|
A---22222-333333-55555-555555-------------------|
E-----------------33333-------------------------|

bridge =E D C/B

In this order
Intro verse 10X
Twisted riff 1X
Intro verse 10X
pre-chorus 2X
Chorus 2X
bridge
intro verse 2X
pre chorus 2X
Chorus 2X
prechorus 2X
chorus 2X
End With twisted riff once

            
            
Suggest correction
Creating personal tab
Creating personal tab
You can edit any tab online and save it as your Personal.

You can edit, replace or remove any tab part or add personal notes – all changes will be seen only by you.

Personal tabs can be accessed anytime from any device, even offline.
Learn more »
Give kudos to tab author, rate the tab!
1 2 3 4 5
comments
print report bad tab
3 comments total.
0 reply
astrocreep71 184 Nov 26, 2006 07:05 PM

This is the intro lick.

e|-------------------------------------------------|
b|-------------------------------------------------|
g|-------------------------------------------------|
d|-------------------------------------------------| a|-5--5--7--5--5--5--7--5--5--5--7--5--10-10-10-10-|
e|-3--3--3--3--3--3--3--3--3--3--3--3--8--8--7--7--|

0 reply
astrocreep71 184 Nov 26, 2006 07:14 PM

sorry, something got whack, it's like this.

a|-5--5--7--5--5--5--7--5--5--5--7--5--10-10-10-10-|
e|-3--3--3--3--3--3--3--3--3--3--3--3--8--8--7--7--|

0 reply
c-rob6422 271 Mar 15, 2007 07:48 AM

No its not astroloser71

guest
You may want to rate the tab now too:
select rating
Wanna post a correction for this tab? Suggest correction