Oops, an error
Loading. Please wait.

Cupid Missed His Mark tab

version 1
version 1

Whole song

Interactive

1,038 views 1 this week
no commentswrite comment
1 2 3 4 5
1 last vote to show rating
add to favorites
×
Save as Personal and add changes to this tab that will be seen only by you. Learn more ›
×
You can save this tab as Personal to edit and correct it or add notes. All changes will be seen only by you. Learn more »
launch autoscroll
font size
0
reset
how to read this tab
guitar tuner
edit
Autoscroll
slow
fast
+/-
esc
set tempo
stop
Tuning: C# G# C# F# A# D#




               PM    PM    PM       PM    PM          PM  
       Q    E  E  E  E  E  E     E  E  E  E  E  E  E  E   
D#||--------------------------|--------------------------|
A#||--------------------------|--------------------------|
F#||*-------------------------|--------------------------|
C#||*--0----7-----5-----7-----|--8-----7-----5--7--5-----|
G#||---0----------------------|--------------------------|
C#||---0-------0-----0-----0--|-----0-----0-----------0--|


                                                           PM    PM    PM  
  Q    Q    Q    Q        Q    Q    E  E   Q       Q    E  E  E  E  E  E   
----------------------|-------------------------|-------------------------|
----------------------|-------------------------|-------------------------|
----------------------|-------------------------|-------------------------|
----------------------|-------------------------|--0----7-----5-----7-----|
-------8----7----8----|--------8----8--7--------|--0----------------------|
--8-------------------|--10---------------10----|--0-------0-----0-----0--|


     PM    PM          PM                                                     
  E  E  E  E  E  E  E  E     Q    Q    Q    Q        Q    Q    E  E   Q       
--------------------------|----------------------|--------------------------||
--------------------------|----------------------|--------------------------||
--------------------------|----------------------|-------------------------*||
--8-----7-----5--7--5-----|----------------------|-------------------------*||
--------------------------|-------8----7----8----|--------8----8--7---------||
-----0-----0-----------0--|--8-------------------|--10---------------10-----||


                    E  E  E  E  E  E  E  E     H        H         
-------|-------||---------------------------|-----------1--------|
-------|-------||---------------------------|-----------3--------|
-------|-------||*--------------------------|-----------2--------|
-------|-------||*--0--0--0--0--0-----0--0--|--------------------|
-------|-------||---0--0--0--0--0-----0--0--|--------------------|
-------|-------||---0--0--0--0--0-----0--0--|--------------------|


  E  E  E  E  E  E  E  E     W                   E  E  E  E  E  E  E  E   
--------------------------|-------------------|--------------------------|
--------------------------|-------------------|--------------------------|
--------------------------|-------------------|--------------------------|
--0--0--0--0--0-----0--0--|-------------------|--0--0--0--0--0-----0--0--|
--0--0--0--0--0-----0--0--|-------------------|--0--0--0--0--0-----0--0--|
--0--0--0--0--0-----0--0--|-------------------|--0--0--0--0--0-----0--0--|


  H        H           E  E  E  E  E  E  E  E     W                   
-----------1--------|--------------------------|--------------------||
-----------3--------|--------------------------|--------------------||
-----------2--------|--------------------------|-------------------*||
--------------------|--0--0--0--0--0-----0--0--|-------------------*||
--------------------|--0--0--0--0--0-----0--0--|--------------------||
--------------------|--0--0--0--0--0-----0--0--|--------------------||


   E  E  E  E  E  E  E  E     E  E  E  E  E  E  E  E   
---------------------------|--------------------------|
---------------------------|--------------------------|
*--------------------------|--------------------------|
*--8--8--8--8--8--8--8--8--|--8--8--8--8--8--8--8--8--|
---8--8--8--8--8--8--8--8--|--8--8--8--8--8--8--8--8--|
---8--8--8--8--8--8--8--8--|--8--8--8--8--8--8--8--8--|


  E  E  E  E  E  E  E  E     E  E  E  E  E  E  E  E   
--------------------------|--------------------------|
--------------------------|--------------------------|
--------------------------|--------------------------|
--8--8--8--8--8--8--8--8--|--8--8--8--8--8--8--8--8--|
--8--8--8--8--8--8--8--8--|--8--8--8--8--8--8--8--8--|
--8--8--8--8--8--8--8--8--|--8--8--8--8--8--8--8--8--|


  E  E  E  E  E  E  E  E     E  E  E  E  E   E   E   E   
--------------------------|-----------------------------|
--------------------------|-----------------------------|
--------------------------|-----------------------------|
--0--L--------------------|-----------------------------|
--0--L--8-----7--------8--|-----7-----8--8--10--10--10--|
--0--L-----0-----0--0-----|--0-----0--------------------|


  E  E  E  E  E  E  E  E     E  E  E  E  E   E   E   E     
--------------------------|------------------------------||
--------------------------|------------------------------||
--------------------------|-----------------------------*||
--0--L--------------------|-----------------------------*||
--0--L--8-----7--------8--|-----7-----8--8--10--10--10---||
--0--L-----0-----0--0-----|--0-----0---------------------||


   E  E  E  E  E  E  E  E     E  E  E  E  E  E  E  E   
---------------------------|--------------------------|
---------------------------|--------------------------|
*--------------------------|--------------------------|
*--8--8--8--8--8--8--8--8--|--8--8--8--8--8--8--8--8--|
---8--8--8--8--8--8--8--8--|--8--8--8--8--8--8--8--8--|
---8--8--8--8--8--8--8--8--|--8--8--8--8--8--8--8--8--|


  E  E  E  E  S S S S E  E      E   E   E   E   E   E   E   E   
----------------------------|----------------------------------|
----------------------------|----------------------------------|
----------------------------|--10--10--10--10--10--10--10--10--|
--0--0--0-----0-0-0-0-0-----|---x---x---x---x---x---x---x---x--|
--0--0--0-----0-0-0-0-0-----|---8---8---8---8---8---8---8---8--|
--0--0--0-----0-0-0-0-0-----|----------------------------------|


  E  E  E  E  S S S S E  E     E  E  E  E  E  E  E  E   
----------------------------|--------------------------|
----------------------------|--------------------------|
----------------------------|--9--9--9--9--9--9--9--9--|
--0--0--0-----0-0-0-0-0-----|--x--x--x--x--x--x--x--x--|
--0--0--0-----0-0-0-0-0-----|--7--7--7--7--7--7--7--7--|
--0--0--0-----0-0-0-0-0-----|--------------------------|


  E  E  E  E  S S S S E  E      E   E   E   E   E   E   E   E   
----------------------------|----------------------------------|
----------------------------|----------------------------------|
----------------------------|--10--10--10--10--10--10--10--10--|
--0--0--0-----0-0-0-0-0-----|---x---x---x---x---x---x---x---x--|
--0--0--0-----0-0-0-0-0-----|---8---8---8---8---8---8---8---8--|
--0--0--0-----0-0-0-0-0-----|----------------------------------|


  E  E  E  E  S S S S E  E     E  E  E  E  E  E  E  E   
----------------------------|--------------------------|
----------------------------|--------------------------|
----------------------------|--9--9--9--9--9--9--9--9--|
--0--0--0-----0-0-0-0-0-----|--x--x--x--x--x--x--x--x--|
--0--0--0-----0-0-0-0-0-----|--7--7--7--7--7--7--7--7--|
--0--0--0-----0-0-0-0-0-----|--------------------------|


  E  E  E  E  E  E  E  E     E  E  E  E  S S S S E  E   
--------------------------|----------------------------|
--------------------------|----------------------------|
--9--9--9--9--9--9--9--9--|----------------------------|
--x--x--x--x--x--x--x--x--|--0--0--0-----0-0-0-0-0-----|
--7--7--7--7--7--7--7--7--|--0--0--0-----0-0-0-0-0-----|
--------------------------|--0--0--0-----0-0-0-0-0-----|


   E   E   E   E   E   E   E   E     E  E  E  E  S S S S E  E   
----------------------------------|----------------------------|
----------------------------------|----------------------------|
--10--10--10--10--10--10--10--10--|----------------------------|
---x---x---x---x---x---x---x---x--|--0--0--0-----0-0-0-0-0-----|
---8---8---8---8---8---8---8---8--|--0--0--0-----0-0-0-0-0-----|
----------------------------------|--0--0--0-----0-0-0-0-0-----|


  E  E  E  E  E  E  E  E     E  E  E  E  S S S S E  E   
--------------------------|----------------------------|
--------------------------|----------------------------|
--9--9--9--9--9--9--9--9--|----------------------------|
--x--x--x--x--x--x--x--x--|--0--0--0-----0-0-0-0-0-----|
--7--7--7--7--7--7--7--7--|--0--0--0-----0-0-0-0-0-----|
--------------------------|--0--0--0-----0-0-0-0-0-----|


   E   E   E   E   E   E   E   E     E  E  E  E  S S S S E  E   
----------------------------------|----------------------------|
----------------------------------|----------------------------|
--10--10--10--10--10--10--10--10--|----------------------------|
---x---x---x---x---x---x---x---x--|--0--0--0-----0-0-0-0-0-----|
---8---8---8---8---8---8---8---8--|--0--0--0-----0-0-0-0-0-----|
----------------------------------|--0--0--0-----0-0-0-0-0-----|


  E  E  E  E  E  E  E  E     W                   W                 
--------------------------|-------------------|-------------------|
--------------------------|-------------------|-------------------|
--9--9--9--9--9--9--9--9--|-------------------|-------------------|
--x--x--x--x--x--x--x--x--|--0----------------|--L----------------|
--7--7--7--7--7--7--7--7--|--0----------------|--L----------------|
--------------------------|--0----------------|--L----------------|


  Q    H.              W                   W                 
--------------------|-------------------|-------------------|
--------------------|-------------------|-------------------|
--------------------|-------------------|-------------------|
--0-----------------|-------------------|-------------------|
--0-----------------|-------------------|-------------------|
--0-----------------|-------------------|-------------------|


  W                   W                   W                   W                 
-------------------|-------------------|-------------------|-------------------|
-------------------|-------------------|-------------------|-------------------|
-------------------|-------------------|-------------------|-------------------|
-------------------|--0----------------|--L----------------|--8----------------|
-------------------|--0----------------|--L----------------|--8----------------|
-------------------|--0----------------|--L----------------|--8----------------|


                               PM    PM    PM       PM    PM          PM  
   W                   Q    E  E  E  E  E  E     E  E  E  E  E  E  E  E   
--------------------|-------------------------|--------------------------|
--------------------|-------------------------|--------------------------|
--------------------|-------------------------|--------------------------|
--10----------------|--0----7-----5-----7-----|--8-----7-----5--7--5-----|
--10----------------|--0----------------------|--------------------------|
--10----------------|--0-------0-----0-----0--|-----0-----0-----------0--|


                                                           PM    PM    PM  
  Q    Q    Q    Q        Q    Q    E  E   Q       Q    E  E  E  E  E  E   
----------------------|-------------------------|-------------------------|
----------------------|-------------------------|-------------------------|
----------------------|-------------------------|-------------------------|
----------------------|-------------------------|--0----7-----5-----7-----|
-------8----7----8----|--------8----8--7--------|--0----------------------|
--8-------------------|--10---------------10----|--0-------0-----0-----0--|


     PM    PM          PM                                                   
  E  E  E  E  E  E  E  E     Q    Q    Q    Q        Q    Q    E  E   Q     
--------------------------|----------------------|-------------------------|
--------------------------|----------------------|-------------------------|
--------------------------|----------------------|-------------------------|
--8-----7-----5--7--5-----|----------------------|-------------------------|
--------------------------|-------8----7----8----|--------8----8--7--------|
-----0-----0-----------0--|--8-------------------|--10---------------10----|


  E  E  E  E  E  E  E  E     E  E  E  E  E  E  E  E   
--------------------------|--------------------------|
--------------------------|--------------------------|
--------------------------|--------------------------|
--8--8--8--8--8--8--8--8--|--8--8--8--8--8--8--8--8--|
--8--8--8--8--8--8--8--8--|--8--8--8--8--8--8--8--8--|
--8--8--8--8--8--8--8--8--|--8--8--8--8--8--8--8--8--|


  E  E  E  E  E  E  E  E     E  E  E  E   E  E  E  E   
--------------------------|---------------------------|
--------------------------|---------------------------|
--------------------------|---------------------------|
--8--8--8--8--8--8--8--8--|--8--8--8--8S--3--3--3--3--|
--8--8--8--8--8--8--8--8--|--8--8--8--8S--3--3--3--3--|
--8--8--8--8--8--8--8--8--|--8--8--8--8S--3--3--3--3--|


  E  E  E  E  S S S S E  E     Q    E  E  E  E  Q     
----------------------------|------------------------|
----------------------------|------------------------|
----------------------------|------------------------|
--0--0--0-----0-0-0-0-0-----|--0----L--0--0--3--3----|
--0--0--0-----0-0-0-0-0-----|--0----L--0--0--3--3----|
--0--0--0-----0-0-0-0-0-----|--0----L--0--0--3--3----|


                                    PM PM PM                                  
  E  E  E  E  S S S S E  E     Q    E  E  E  E  Q       Q    Q    Q     Q     
----------------------------|------------------------|-----------------------|
----------------------------|------------------------|-----------------------|
----------------------------|------------------------|-----------------------|
--0--0--0-----0-0-0-0-0-----|--0-------------3--3----|-----------------------|
--0--0--0-----0-0-0-0-0-----|--0----0--0--0--3--3----|-------8----7----------|
--0--0--0-----0-0-0-0-0-----|--0----0--0--0--3--3----|--8--------------10----|


  Q    Q    E  E  E   E     Q    Q    Q     Q       Q    Q    E  E  E  E   
-------------------------|-----------------------|------------------------|
-------------------------|-----------------------|------------------------|
-------------------------|-----------------------|------------------------|
-------------------------|-----------------------|------------3--3--3--3--|
-------8----8--8--7------|-------8----7----------|-------8----3--3--3--3--|
--8------------------10--|--8--------------10----|--8---------3--3--3--3--|


  E  E  E  E  S S S S E  E     Q    E  E  E  E  Q     
----------------------------|------------------------|
----------------------------|------------------------|
----------------------------|------------------------|
--0--0--0-----0-0-0-0-0-----|--0----L--0--0--3--3----|
--0--0--0-----0-0-0-0-0-----|--0----L--0--0--3--3----|
--0--0--0-----0-0-0-0-0-----|--0----L--0--0--3--3----|


                                    PM PM PM          
  E  E  E  E  S S S S E  E     Q    E  E  E  E  Q     
----------------------------|------------------------|
----------------------------|------------------------|
----------------------------|------------------------|
--0--0--0-----0-0-0-0-0-----|--0-------------3--3----|
--0--0--0-----0-0-0-0-0-----|--0----0--0--0--3--3----|
--0--0--0-----0-0-0-0-0-----|--0----0--0--0--3--3----|


   E   E   E   E   E   E   E   E      E   E   E   E   E   E   E   E   
----------------------------------|----------------------------------|
----------------------------------|----------------------------------|
----------------------------------|----------------------------------|
--12--12--12--12--12--12--12--12--|--12--12--12--12--12--12--12--12--|
--12--12--12--12--12--12--12--12--|--12--12--12--12--12--12--12--12--|
--12--12--12--12--12--12--12--12--|--12--12--12--12--12--12--12--12--|


   E   E   E   E   E   E   E   E      E   E   E   E   E   E   E   E   
----------------------------------|----------------------------------|
----------------------------------|----------------------------------|
----------------------------------|----------------------------------|
--12--12--12--12--12--12--12--12--|--12--12--12--12--12--12--12--12--|
--12--12--12--12--12--12--12--12--|--12--12--12--12--12--12--12--12--|
--12--12--12--12--12--12--12--12--|--12--12--12--12--12--12--12--12--|


  E  E  E  E  E  E  E  E     E  E  E  E  E  E  E  E   
--------------------------|--------------------------|
--------------------------|--------------------------|
--------------------------|--------------------------|
--8--8--8--8--8--8--8--8--|--8--8--8--8--8--8--8--8--|
--8--8--8--8--8--8--8--8--|--8--8--8--8--8--8--8--8--|
--8--8--8--8--8--8--8--8--|--8--8--8--8--8--8--8--8--|


  E  E  E  E  E  E  E  E     E  E  E  E  E  E  E  E   
--------------------------|--------------------------|
--------------------------|--------------------------|
--------------------------|--------------------------|
--8--8--8--8--8--8--8--8--|--8--8--8--8--8--8--8--8--|
--8--8--8--8--8--8--8--8--|--8--8--8--8--8--8--8--8--|
--8--8--8--8--8--8--8--8--|--8--8--8--8--8--8--8--8--|


   E   E   E   E   E   E   E   E      E   E   E   E   E   E   E   E   
----------------------------------|----------------------------------|
----------------------------------|----------------------------------|
----------------------------------|----------------------------------|
--12--12--12--12--12--12--12--12--|--12--12--12--12--12--12--12--12--|
--12--12--12--12--12--12--12--12--|--12--12--12--12--12--12--12--12--|
--12--12--12--12--12--12--12--12--|--12--12--12--12--12--12--12--12--|


   E   E   E   E   E   E   E   E      E   E   E   E   E   E   E   E   
----------------------------------|----------------------------------|
----------------------------------|----------------------------------|
----------------------------------|----------------------------------|
--12--12--12--12--12--12--12--12--|--12--12--12--12--12--12--12--12--|
--12--12--12--12--12--12--12--12--|--12--12--12--12--12--12--12--12--|
--12--12--12--12--12--12--12--12--|--12--12--12--12--12--12--12--12--|


  E  E  E  E  E  E  E  E     E  E  E  E  E  E  E  E   
--------------------------|--------------------------|
--------------------------|--------------------------|
--------------------------|--------------------------|
--8--8--8--8--8--8--8--8--|--8--8--8--8--8--8--8--8--|
--8--8--8--8--8--8--8--8--|--8--8--8--8--8--8--8--8--|
--8--8--8--8--8--8--8--8--|--8--8--8--8--8--8--8--8--|


  E  E  E  E  E  E  E  E     E  E  E  E  E  E  E  E     W                 
--------------------------|--------------------------|-------------------|
--------------------------|--------------------------|-------------------|
--------------------------|--------------------------|-------------------|
--8--8--8--8--8--8--8--8--|--8--8--8--8--8--8--8--8--|--0----------------|
--8--8--8--8--8--8--8--8--|--8--8--8--8--8--8--8--8--|--0----------------|
--8--8--8--8--8--8--8--8--|--8--8--8--8--8--8--8--8--|--0----------------|


  W                   Q    Q    H           W                 
-------------------|---------------------|-------------------|
-------------------|---------------------|-------------------|
-------------------|---------------------|-------------------|
--L----------------|--0------------------|-------------------|
--L----------------|--0------------------|-------------------|
--L----------------|--0------------------|-------------------|


  E  E  E  E  E  E  E  E     E  E  E  E  E   E   E   E   
--------------------------|-----------------------------|
--------------------------|-----------------------------|
--------------------------|-----------------------------|
--0--L--------------------|-----------------------------|
--0--L--8-----7--------8--|-----7-----8--8--10--10--10--|
--0--L-----0-----0--0-----|--0-----0--------------------|


  E  E  E  E  E  E  E  E     E  E  E  E  E   E   E   E   
--------------------------|-----------------------------|
--------------------------|-----------------------------|
--------------------------|-----------------------------|
--0--L--------------------|-----------------------------|
--0--L--8-----7--------8--|-----7-----8--8--10--10--10--|
--0--L-----0-----0--0-----|--0-----0--------------------|


  E  E  E  E  E  E  E  E     E  E  E  E  E   E   E   E   
--------------------------|-----------------------------|
--------------------------|-----------------------------|
--------------------------|-----------------------------|
--0--L--------------------|-----------------------------|
--0--L--8-----7--------8--|-----7-----8--8--10--10--10--|
--0--L-----0-----0--0-----|--0-----0--------------------|


  E  E  E  E  E  E  E  E     E  E  E  E  E   E   E   E   
--------------------------|-----------------------------|
--------------------------|-----------------------------|
--------------------------|-----------------------------|
--0--L--------------------|-----------------------------|
--0--L--8-----7--------8--|-----7-----8--8--10--10--10--|
--0--L-----0-----0--0-----|--0-----0--------------------|


  E  E  E  E  E  E  E  E     E  E  E  E  E   E   E   E   
--------------------------|-----------------------------|
--------------------------|-----------------------------|
--------------------------|-----------------------------|
--0--L--------------------|-----------------------------|
--0--L--8-----7--------8--|-----7-----8--8--10--10--10--|
--0--L-----0-----0--0-----|--0-----0--------------------|


                                                           PM PM                
  E  E  E  E  E  E  E  E     E  E  E  E  E   E   E   E     E  H        Q.       
--------------------------|-----------------------------|---------------------||
--------------------------|-----------------------------|---------------------||
--------------------------|-----------------------------|---------------------||
--0--L--------------------|-----------------------------|-----0---------------||
--0--L--8-----7--------8--|-----7-----8--8--10--10--10--|--0--0---------------||
--0--L-----0-----0--0-----|--0-----0--------------------|--0--0---------------||




Duration Legend
---------------
W - whole
H - half
Q - quarter
E - 8th
S - 16th
T - 32nd
X - 64th
. - note dotted
|-n-|  - n-tuplets


Tablature Legend
----------------
L - tied note
x - dead note
g - grace note
(n) - ghost note
> - accentuded note
NH - natural harmonic
AH - artificial harmonic
TH - tapped harmonic
SH - semi harmonic
PH - pitch harmonic
h - hammer on
p - pull off
b - bend
br - bendRelease
pb - preBend
pbr - preBendRelease
brb - bendReleaseBend
\n/ - tremolo bar dip
\n - tremolo bar dive
-/n - tremolo bar Release up
/n\ - tremolo bar inverted dip
/n - tremolo bar return
-\n - tremolo bar Release down
S - shift slide
s - legato slide
/ -  slide into from below or out of upwards
\ -  slide into from above or out of downwards
~ - vibrato
W - wide vibrato
tr - trill
TP - tremolo picking
T - tapping
S - slap
P - pop
< - fade in
^ - brush up
v - brush down

            
            
Suggest correction
Creating personal tab
Creating personal tab
You can edit any tab online and save it as your Personal.

You can edit, replace or remove any tab part or add personal notes – all changes will be seen only by you.

Personal tabs can be accessed anytime from any device, even offline.
Learn more »
Give kudos to tab author, rate the tab!
1 2 3 4 5
comments
print report bad tab
guest
You may want to rate the tab now too:
select rating
Wanna post a correction for this tab? Suggest correction