Oops, an error
Loading. Please wait.

Cupid Missed His Mark tab

version 2
version 2

Whole song

Interactive

1,824 views 1 this week
2 commentsread comments
1 2 3 4 5
1 last vote to show rating
add to favorites
×
Save as Personal and add changes to this tab that will be seen only by you. Learn more ›
×
You can save this tab as Personal to edit and correct it or add notes. All changes will be seen only by you. Learn more »
launch autoscroll
font size
0
reset
how to read this tab
guitar tuner
edit
Autoscroll
slow
fast
+/-
esc
set tempo
stop
-------------------------------------------------------------------------------
			     Cupid Missed His Mark – Burden of a Day
-------------------------------------------------------------------------------
Tabbed by: Jake Schoen
Email:Jake_the_Massterbasser@yahoo.com

Tuning: Drop Db


-------------------------------------------------------------------------------
Guitar #1
-------------------------------------------------------------------------------
eb|---------------------------------------------------------------------------|
Bb|---------------------------------------------------------------------------|
Gb|---------------------------------------------------------------------------|
Db|--0-----------------------------8-8---88-8----1010-10---1010-10------------|    x4
Ab|--0--8---7---8---10----7-8-7----8-8---88-8----1010-10---1010-10------------|
Db|--0----0---0---0----0--------0—-8-8---88-8----1010-10---1010-10------------|
          .   .   .    .        .        ..      . .       . .
eb|------------------|
Bb|------------------|
Gb|------------------|
Db|--0-00---000------|
Ab|--0-00---000------|
Db|--0-00---000------|

eb|---------------1-----------------------------------------------------------|
Bb|----------------3----------------------------------------------------------|
Gb|-----------------2---------------101010101010------------------------------|
Db|---0-00--000---------0-00--000---x-x-x-x-x-x-------------------------------|   x4
Ab|---0-00--000---------0-00--000---8-8-8-8-8-8-------------------------------|
Db|---0-00--000---------0-00--000---------------------------------------------|

eb|---------------------------------------------------------------------------|
Bb|---------------------------------------------------------------------------|
Gb|---------------------------------------------------------------------------|
Db|--8------------------------------------------------------------------------|   x2
Ab|--8—x32--------8---7----8---7----88-101010---------------------------------|
Db|--8--------00----0---00---0----0-------------------------------------------|
	      ..    .   ..   .    .
eb|---------------------------------------------------------------------------|
Bb|---------------------------------------------------------------------------|
Gb|---------------1010101010101010---------------9-9-9-9-9-9-9-9--------------|
Db|---------------x-x-x-x-x-x-x-x----------------x-x-x-x-x-x-x-x--------------|   x2
Ab|--0000--0-0-0--8-8-8-8-8-8-8-8---0-0-0--0000--7-7-7-7-7-7-7-7--------------|
Db|--0000--0-0-0--------------------0-0-0--0000-------------------------------|
     ....  . . .	                    . . .  ....
eb|---------------------------------------------------------------------------|
Bb|---------------------------------------------------------------------------|
Gb|--9-9-9-9-9-9-9-9----------------------------------------------------------|
Db|--x-x-x-x-x-x-x-x----------------------------------------------------------|
Ab|--7-7-7-7-7-7-7-7----------------------------------------------------------|
Db|---------------------------------------------------------------------------|

eb|---------------------------------------------------------------------------|
Bb|---------------------------------------------------------------------------|
Gb|---------------1010101010101010---------------9-9-9-9-9-9-9-9--------------|
Db|---------------x-x-x-x-x-x-x-x----------------x-x-x-x-x-x-x-x--------------|   x2
Ab|--0000--0-0-0--8-8-8-8-8-8-8-8---0000--0-0-0--7-7-7-7-7-7-7-7--------------|
Db|--0000--0-0-0--------------------0000--0-0-0-------------------------------|
     ....  . . .                    ....  . . .
eb|---------------------------------------------------------------------------|
Bb|---------------------------------------------------------------------------|
Gb|---------------------------------------------------------------------------|
Db|--0~~~~~~~~~~~~~~~~~~~~~~~~~~~--0------------------------------------------|
Ab|--0~~~~~~~~~~~~~~~~~~~~~~~~~~~--0------------------------------------------|
Db|--0~~~~~~~~~~~~~~~~~~~~~~~~~~~--0------------------------------------------|

eb|---------------------------------------------------------------------------|
Bb|---------------------------------------------------------------------------|
Gb|---------------------------------------------------------------------------|
Db|---0~~~~~~~~~~~~~~~~~~~~~~~~~~--8~~~~~~~~~~~--10~~~~~~~~~~~----------------|
Ab|---0~~~~~~~~~~~~~~~~~~~~~~~~~~--8~~~~~~~~~~~--10~~~~~~~~~~~----------------|
Db|---0~~~~~~~~~~~~~~~~~~~~~~~~~~--8~~~~~~~~~~~--10~~~~~~~~~~~----------------|


eb|---------------------------------------------------------------------------|
Bb|---------------------------------------------------------------------------|
Gb|---------------------------------------------------------------------------|
Db|--0-----------------------------8-8---88-8----1010-10---1010-10------------|    x2
Ab|--0--8---7---8---10----7-8-7----8-8---88-8----1010-10---1010-10------------|
Db|--0----0---0---0----0--------0—-8-8---88-8----1010-10---1010-10------------|
          .   .   .    .        .        ..      . .       . .

eb|---------------------------------------------------------------------------|
Bb|---------------------------------------------------------------------------|
Gb|---------------------------------------------------------------------------|
Db|--8------------------------------------------------------------------------|
Ab|--8—x32--------------------------------------------------------------------|
Db|--8------------------------------------------------------------------------|

eb---------------------------------------------------------------------------|
Bb|---------------------------------------------------------------------------|
Gb|---------------------------------------------------------------------------|
Db|--0------------------0--33---0------------------0--33----------------------|
Ab|--0---0000-0000-0000-0--33---0---0000-0000-0000-0--33----------------------|
Db|--0---0000-0000-0000-0--33---0---0000-0000-0000-0--33----------------------|
         .... .... ....             .... .... ....
eb|---------------------------------------------------------------------------|
Bb|---------------------------------------------------------------------------|
Gb|---------------------------------------------------------------------------|
Db|--8888888888888888888888888888\3333----------------------------------------|
Ab|--8888888888888888888888888888\3333----------------------------------------|
Db|--8888888888888888888888888888\3333----------------------------------------|

eb|---------------------------------------------------------------------------|
Bb|---------------------------------------------------------------------------|
Gb|---------------------------------------------------------------------------|
Db|--0------------------0--33---0------------------0--33----------------------|
Ab|--0---0000-0000-0000-0--33---0---0000-0000-0000-0--33----------------------|
Db|--0---0000-0000-0000-0--33---0---0000-0000-0000-0--33----------------------|
         .... .... ....             .... .... ....
eb|---------------------------------------------------------------------------|
Bb|---------------------------------------------------------------------------|
Gb|---------------------------------------------------------------------------|
Db|--8~~~~~~~~~~~~~~~~~~~~~~~~~~~~~~~~~~~~~~~~~~~~~~~~~~~~~~~~~~~~~~~~~~~~~~--|
Ab|--8~~~~~~~~~~~~~~~~~~~~~~~~~~~~~~~~~~~~~~~~~~~~~~~~~~~~~~~~~~~~~~~~~~~~~~--|
Db|--8~~~~~~~~~~~~~~~~~~~~~~~~~~~~~~~~~~~~~~~~~~~~~~~~~~~~~~~~~~~~~~~~~~~~~~--|

eb|---------13------------13--------------------------------------------------|
Bb|-----------13------------13------------------------------------------------|
Gb|------14-----14-----14-----14----------------------------------------------|
Db|--12--------------12-------------------------------------------------------|   x8
Ab|---------------------------------------------------------------------------|
Db|---------------------------------------------------------------------------|

eb|---------------------------------------------------------------------------|
Bb|---------------------------------------------------------------------------|
Gb|---------------------------------------------------------------------------|
Db|--12-------8-------12-------8----------------------------------------------|
Ab|--12--x32--8--x32--12--x32--8--x32-----------------------------------------|
Db|--12-------8-------12-------8----------------------------------------------|

eb|---------------------------------------------------------------------------|
Bb|---------------------------------------------------------------------------|
Gb|---------------------------------------------------------------------------|
Db|---------------------------------------------------------------------------|   x8
Ab|----------8---7----8---7----88-101010--------------------------------------|
Db|------00----0---00---0----0------------------------------------------------|
         ..    .   ..   .    .
eb|---------------------------------------------------------------------------|
Bb|---------------------------------------------------------------------------|
Gb|---------------------------------------------------------------------------|
Db|--0~~~~~~~~~~~~~~~~~~~~~---------------------------------------------------|
Ab|--0~~~~~~~~~~~~~~~~~~~~~---------------------------------------------------|
Db|--0~~~~~~~~~~~~~~~~~~~~~---------------------------------------------------|
    .
 
-------------------------------------------------------------------------------
Guitar #2
-------------------------------------------------------------------------------

eb|---------------------------------------------------------------------------|
Bb|---------------------------------------------------------------------------|
Gb|---------------------------------------------------------------------------|
Db|--0---7---5---7---8----5-7-5-----------------------------------------------|    x4
Ab|--0--------------------------------8--7--8------8--8-7---------------------|
Db|--0----0---0---0----0--------0—-8-----------10----------10-----------------|
          .   .   .    .        .       
eb|------------------|
Bb|------------------|
Gb|------------------|
Db|--0-00---000------|
Ab|--0-00---000------|
Db|--0-00---000------|

eb|---------------1-----------------------------------------------------------|
Bb|----------------3----------------------------------------------------------|
Gb|-----------------2---------------101010101010------------------------------|
Db|---0-00--000---------0-00--000---x-x-x-x-x-x-------------------------------|   x4
Ab|---0-00--000---------0-00--000---8-8-8-8-8-8-------------------------------|
Db|---0-00--000---------0-00--000---------------------------------------------|

eb|---------------------------------------------------------------------------|
Bb|---------------------------------------------------------------------------|
Gb|---------------------------------------------------------------------------|
Db|--8------------7---5----7---5----77-888------------------------------------|   x2
Ab|--8—x32--------------------------------------------------------------------|
Db|--8--------00----0---00---0----0-------------------------------------------|
	      ..    .   ..   .    .
eb|---------------------------------------------------------------------------|
Bb|---------------------------------------------------------------------------|
Gb|---------------1414141414141414---------------1212121212121212-------------|
Db|---------------x-x-x-x-x-x-x-x----------------x-x-x-x-x-x-x-x--------------|   x2
Ab|--0000--0-0-0--1212121212121212--0-0-0--0000--1010101010101010-------------|
Db|--0000--0-0-0--------------------0-0-0--0000-------------------------------|
     ....  . . .	                    . . .  ....
eb|---------------------------------------------------------------------------|
Bb|---------------------------------------------------------------------------|
Gb|--1212121212121212---------------------------------------------------------|
Db|--x-x-x-x-x-x-x-x----------------------------------------------------------|
Ab|--1010101010101010---------------------------------------------------------|
Db|---------------------------------------------------------------------------|

eb---------------------------------------------------------------------------|
Bb|---------------------------------------------------------------------------|
Gb|---------------1414141414141414---------------1212121212121212-------------|
Db|---------------x-x-x-x-x-x-x-x----------------x-x-x-x-x-x-x-x--------------|   x2
Ab|--0000--0-0-0--1212121212121212--0-0-0--0000--1010101010101010-------------|
Db|--0000--0-0-0--------------------0-0-0--0000-------------------------------|
     ....  . . .                    ....  . . .
eb|---------------------------------------------------------------------------|
Bb|---------------------------------------------------------------------------|
Gb|---------------------------------------------------------------------------|
Db|--0~~~~~~~~~~~~~~~~~~~~~~~~~~~--0------------------------------------------|
Ab|--0~~~~~~~~~~~~~~~~~~~~~~~~~~~--0------------------------------------------|
Db|--0~~~~~~~~~~~~~~~~~~~~~~~~~~~--0------------------------------------------|

eb|---------------------------------------------------------------------------|
Bb|---------------------------------------------------------------------------|
Gb|---------------------------------------------------------------------------|
Db|---0~~~~~~~~~~~~~~~~~~~~~~~~~~--8~~~~~~~~~~~--10~~~~~~~~~~~----------------|
Ab|---0~~~~~~~~~~~~~~~~~~~~~~~~~~--8~~~~~~~~~~~--10~~~~~~~~~~~----------------|
Db|---0~~~~~~~~~~~~~~~~~~~~~~~~~~--8~~~~~~~~~~~--10~~~~~~~~~~~----------------|

eb|---------------------------------------------------------------------------|
Bb|---------------------------------------------------------------------------|
Gb|---------------------------------------------------------------------------|
Db|--0---7---5---7---8----5-7-5-----------------------------------------------|    x4
Ab|--0--------------------------------8--7--8------8--8-7---------------------|
Db|--0----0---0---0----0--------0—-8-----------10----------10-----------------|
          .   .   .    .        .        
eb|---------------------------------------------------------------------------|
Bb|---------------------------------------------------------------------------|
Gb|---------------------------------------------------------------------------|
Db|--8------------------------------------------------------------------------|
Ab|--8—x32--------------------------------------------------------------------|
Db|--8------------------------------------------------------------------------|

eb|---------------------------------------------------------------------------|
Bb|---------------------------------------------------------------------------|
Gb|---------------------------------------------------------------------------|
Db|--0------------------0--33---0------------------0--33----------------------|
Ab|--0---0000-0000-0000-0--33---0---0000-0000-0000-0--33----------------------|
Db|--0---0000-0000-0000-0--33---0---0000-0000-0000-0--33----------------------|
         .... .... ....             .... .... ....
eb|---------------------------------------------------------------------------|
Bb|---------------------------------------------------------------------------|
Gb|---------------------------------------------------------------------------|
Db|--8888888888888888888888888888\3333----------------------------------------|
Ab|--8888888888888888888888888888\3333----------------------------------------|
Db|--8888888888888888888888888888\3333----------------------------------------|

eb|---------------------------------------------------------------------------|
Bb|---------------------------------------------------------------------------|
Gb|---------------------------------------------------------------------------|
Db|--0------------------0--33---0------------------0--33----------------------|
Ab|--0---0000-0000-0000-0--33---0---0000-0000-0000-0--33----------------------|
Db|--0---0000-0000-0000-0--33---0---0000-0000-0000-0--33----------------------|
         .... .... ....             .... .... ....
Clean
eb|---------------------------------------------------------------------------|
Bb|---------------------------------------------------------------------------|
Gb|---------------------------------------------------------------------------|
Db|--12-------8-------12-------8----------------------------------------------|
Ab|--12--x32--8--x32--12--x32--8--x32-----------------------------------------|
Db|--12-------8-------12-------8----------------------------------------------|

eb|---------------------------------------------------------------------------|
Bb|--------------13----------------13-----------------------------------------|
Gb|-----14----14----14----14----14----14--------------------------------------|
Db|--12----12----------12----12-----------------------------------------------|   x8
Ab|---------------------------------------------------------------------------|
Db|---------------------------------------------------------------------------|
Distorted
eb|---------------------------------------------------------------------------|
Bb|---------------------------------------------------------------------------|
Gb|---------------------------------------------------------------------------|
Db|--12-------8-------12-------8----------------------------------------------|
Ab|--12--x32--8--x32--12--x32--8--x32-----------------------------------------|
Db|--12-------8-------12-------8----------------------------------------------|

eb|---------------------------------------------------------------------------|
Bb|---------------------------------------------------------------------------|
Gb|---------------------------------------------------------------------------|
Db|--0~~~~~~~~~~~~~~~~~~~~~----0----------------------------------------------|
Ab|--0~~~~~~~~~~~~~~~~~~~~~----0----------------------------------------------|
Db|--0~~~~~~~~~~~~~~~~~~~~~----0----------------------------------------------|

eb|---------------------------------------------------------------------------|
Bb|---------------------------------------------------------------------------|
Gb|---------------------------------------------------------------------------|
Db|----------7---5----7---5----77-888-----------------------------------------|   x6
Ab|---------------------------------------------------------------------------|
Db|------00----0---00---0----0------------------------------------------------|
         ..    .   ..   .    .
eb|---------------------------------------------------------------------------|
Bb|---------------------------------------------------------------------------|
Gb|---------------------------------------------------------------------------|
Db|--0~~~~~~~~~~~~~~~~~~~~~---------------------------------------------------|
Ab|--0~~~~~~~~~~~~~~~~~~~~~---------------------------------------------------|
Db|--0~~~~~~~~~~~~~~~~~~~~~---------------------------------------------------|
     .
| /  slide up
| \  slide down
| h  hammer-on
| p  pull-off
| ~  vibrato
| +  harmonic
| x  Mute note
===============================================================================


            
            
Suggest correction
Creating personal tab
Creating personal tab
You can edit any tab online and save it as your Personal.

You can edit, replace or remove any tab part or add personal notes – all changes will be seen only by you.

Personal tabs can be accessed anytime from any device, even offline.
Learn more »
Give kudos to tab author, rate the tab!
1 2 3 4 5
comments
print report bad tab
2 comments total.
0 reply
twistedmech 10 Jun 12, 2007 06:37 PM

I've played it like this for awhile now, good to see I got it right, great tab

0 reply
A7Xaddict 10 Jun 29, 2007 11:50 PM

this tab is awesome. its almost perfect

guest
Wanna post a correction for this tab? Suggest correction