Oops, an error
Loading. Please wait.

For Tomorrow We Die tab

40 views 1 this week
no commentswrite comment
1 2 3 4 5
3 more votes to show rating
add to favorites
×
Save as Personal and add changes to this tab that will be seen only by you. Learn more ›
×
You can save this tab as Personal to edit and correct it or add notes. All changes will be seen only by you. Learn more »
launch autoscroll
font size
0
reset
how to read this tab
guitar tuner
edit
Autoscroll
slow
fast
+/-
esc
set tempo
stop
Great song with many parts, its fun to play!

0:00

Git 1 + 2
|-0--------|------0---0---|-0--------|
|-6-repeat-|------6---6---|-6-repeat-|
|-9--------|------9---9---|-9--------|
|----------|--------------|----------|
|----------|--0-0---0-----|----------|
|----------|--0-0---0-----|----------|
|          |              |          |
|----------|--------------|----------|
|----------|--------------|----------|
|----------|------7---7---|----------|
|----------|------7---7---|----------|
|---0-0-0--|--0-0-5-0-5---|----------|
|---0-0-0--|--0-0---0-----|----------|
                    
0:27

Git 1 + 2
|-----------|--------------|--------------|
|-----------|--------------|--------------|
|-----------|--------------|--and-so-on---|
|-----------|--------------|--------------|
|--0-0-0-0--|--0~----12\---|-0-0-0--0-0---|
|--0-0-0-0--|--0~----12\---|-0-0-0--0-0---|
|  x x x x  |              | x x x  x x   |
|-----------|--------------|--------------|
|-----------|--------------|--------------|
|-----------|--------------|--------------|
|-----------|--------------|--------------|
|--0-0-0-0--|--0~----------|-0-0-0--0-0---|
|--0-0-0-0--|--0~----------|-0-0-0--0-0---|
   x x x x                   x x x  x x

0:44

Git 1 + 2
|----------------------|---------------------|
|----and-so-on---------|--------10-8---------|
|----------------------|-------------9-10-7--|
|--8-8--8-8-8-8--------|---------------------|
|--8-8--8-8-8-8--------|--0-0-0--------------|
|--8-8--8-8-8-8--------|--0-0-0--------------|
|                      |  x x x              |              
|----------------------|---------------------|
|----------------------|---------------------|
|----------------------|--------10-9---------|
|--8-8--8-8-8-8--------|-------------10p0-7--|
|--8-8--8-8-8-8--------|--0-0-0--------------|
|--8-8--8-8-8-8--------|--0-0-0--------------|
                          x x x               

|----------------------|---------------------|
|----and-so-on---------|--------10-8---------|
|----------------------|-------------9-10-7--|
|--8-8--8-8-8-8--------|---------------------|
|--8-8--8-8-8-8--------|--0-0-0--------------|
|--8-8--8-8-8-8--------|--0-0-0--------------|
|                      |  x x x              |              
|----------------------|---------------------|
|----------------------|---------------------|
|--10p9----------------|--------10-9---------|
|-------10p0-7p0-10p0--|-------------10p0-7--|
|----------------------|--0-0-0--------------|
|----------------------|--0-0-0--------------|
                          x x x               

|----------------------|
|-------10-8-----------|
|--10-7------10-9-7-9--|
|----------------------|
|----------------------|
|----------------------|
|                      |            
|----------------------|
|----------------------|
|----------------------|
|--8-8--8-8-8-8--------|
|--8-8--8-8-8-8--------|
|--8-8--8-8-8-8--------|

1:11

Git 1 + 2
|--------------------------------|--------------------------------|
|--------------------------------|--------------------------------|
|--------------------------------|--------------------------------|
|---------0h2p0h3p0h5p0h3p0h2p0--|---------0h2p0h3p0h5p0h3p0h2p0--|
|--------------------------------|--------------------------------|
|-000-0--------------------------|-000-0--------------------------|
|                                |                                |
|--------------------------------|--------------------------------|
|--------------------------------|--------------------------------|
|--------------------------------|--------------------------------|
|--------------------------------|--------------------------------|
|--------------------------------|---------0h3p0h5p0h7p0h3p0h5p0--|
|--------------------------------|-000-0--------------------------|
                          
|--------------------------------|--------------------------------|
|--------------------------------|--------------------------------|
|--------------------------------|--------------------------------|
|---------0h2p0h3p0h5p0h3p0h2p0--|---------0h2p0h3p0h5p0h3p0h2p0--|
|--------------------------------|--------------------------------|
|-000000-------------------------|-000000-------------------------|
| xxxxxx                         | xxxxxx                         |
|--------------------------------|--------------------------------|
|--------------------------------|--------------------------------|
|--------------------------------|--------------------------------|
|--------------------------------|--------------------------------|
|---------0h3p0h5p0h7p0h3p0h5p0--|---------0h3p0h5p0h7p0h3p0h5p0--|
|-000000-------------------------|-000000-------------------------|
  xxxxxx                           xxxxxx

1:31

Git 1 + 2
|-------------------------------------------------------|
|-------------------------------------------------------|
|-------------------------------------------------------|
|-------3p2p0--------5/7p0--------3p2p0--7-7-7---7-7p8--|
|-0-00---------3-33---------0-00---------8-8-8---8-8----|
|-0-00---------3-33---------0-00------------------------|
|   xx           xx           xx         . . .          |                  
|-------------------------------------------------------|
|-------------------------------------------------------|
|-------------------------------------------------------|
|-------------------------------------------------------|
|----------------------------------------8-8-8--8-8-8---|
|----------------------------------------8-8-8--8-8-8---|
                                         . . .

|-----------------------------------------------------------------------|
|-----------------------------------------------------------------------|
|-----------------------------------------------------------------------|
|-------3p2p0--------5/7p0--------3p2p0--------5/7p0-----------7-7-7p8--|
|-0-00---------3-33---------0-00---------3-33---------8-888888-8-8-8----|
|-0-00---------3-33---------0-00---------3-33---------8-888888----------|    
|   xx           xx           xx           xx           xxxxxx . .      |                  
|-----------------------------------------------------------------------|
|-----------------------------------------------------------------------|
|-----------------------------------------------------------------------|
|-------------------------------------------------------------7-7-7p8---|
|-0-00000------3-33333------0-00000------3-33333-----8-888888-8-8-8-----|
|-0-00000------3-33333------0-00000------3-33333-----8-888888-----------|                                          
    xxxxx        xxxxx        xxxxx        xxxxx       xxxxxx . .

1:51

Git 1 + 2

() = you can add this notes as variation

|----------------------------------------------------------------------------------------|
|-------6-------8-------10-------10------10-10-------6-------8-------5-------5------5-5--|
|--7-7-(7)-7-7-(7)-7-7-(7)--7-7-(7)--7-7-7--7---7-7-(7)-7-7-(7)-7-7-(7)-7-7-(7)-7-7-7-7--|
|-(0-0)---(0-0)---(0-0)----(0-0)----(0-0-0--0)-(0-0)---(0-0)---(0-0)---(0-0)---(0-0-0-0)-|
|----------------------------------------------------------------------------------------|
|----------------------------------------------------------------------------------------|
|----------------------------------------------------------------------------------------|
|----------------------------------------------------------------------------------------|
|  x x     x x     x x      x x      x x        x x     x x     x x     x x     x x      |
|----------------------------------------------------------------------------------------|
|----------------------------------------------------------------------------------------|
|----------------------------------------------------------------------------------------|
|----------------------------------------------------------------------------------------|
|--0~------------------------------------------------------------------------------------|
|--0~------------------------------------------------------------------------------------|

|----------------------------------------------------------------------------------------|
|-------6-------8-------10-------10------10-10-------6-------8-------5-------5------5-5--|
|--7-7-(7)-7-7-(7)-7-7-(7)--7-7-(7)--7-7-7--7---7-7-(7)-7-7-(7)-7-7-(7)-7-7-(7)-7-7-7-7--|
|-(0-0)---(0-0)---(0-0)----(0-0)----(0-0-0--0)-(0-0)---(0-0)---(0-0)---(0-0)---(0-0-0-0)-|
|----------------------------------------------------------------------------------------|
|----------------------------------------------------------------------------------------|
|----------------------------------------------------------------------------------------|
|----------------------------------------------------------------------------------------|
|  x x     x x     x x      x x      x x        x x     x x     x x     x x     x x      |
|--1~-------------------------------------------1~---------------------------------------|
|----3~-------------------------------------------3~-------------------------------------|
|------2~-------------------------------------------2~-----------------------------------|
|----------------------------------------------------------------------------------------|
|----------------------------------------------------------------------------------------|
|----------------------------------------------------------------------------------------|

|----------------------------------------------------------------------------------------|
|-------6-------8-------10-------10------10-10-------6-------8-------5-------5------5-5--|
|--7-7-(7)-7-7-(7)-7-7-(7)--7-7-(7)--7-7-7--7---7-7-(7)-7-7-(7)-7-7-(7)-7-7-(7)-7-7-7-7--|
|-(0-0)---(0-0)---(0-0)----(0-0)----(0-0-0--0)-(0-0)---(0-0)---(0-0)---(0-0)---(0-0-0-0)-|
|----------------------------------------------------------------------------------------|
|----------------------------------------------------------------------------------------|
|----------------------------------------------------------------------------------------|
|----------------------------------------------------------------------------------------|
|  x x     x x     x x      x x      x x        x x     x x     x x     x x     x x      |
|----------------------------------------------------------------------------------------|
|----------------------------------------------------------------------------------------|
|----------------------------------------------------------------------------------------|
|--000000000------3333333333-----22222222----5555---3333----2222----3333-----------------|
|----------------------------------------------------------------------------------------|
|----------------------------------------------------------------------------------------|

2:15

Git 1 + 2

() = you can add this notes as variation

|--------------------------------------------------------------------------------|
|----6---6----8---8----10---10---10-10-10------6---6----8---8----5---5---5-5-5---|
|--7-7-7-7--7-7-7-7--7-7--7-7--7-7--7--7-----7-7-7-7--7-7-7-7--7-7-7-7-7-7-7-7---|
|-(0)-(0)--(0)-(0)--(0)--(0)--(0)-----------(0)-(0)--(0)-(0)--(0)-(0)-(0)--------|
|--------------------------------------------------------------------------------|
|--let-ring------no-muting-------------------------------------------------------|
|--------------------------------------------------------------------------------|
|--------------------------------------------------------------------------------|
|                                                                                |
|-----------------------------------|--------------------------------------------|
|-----------------------------------|--------------------------------------------|
|-----------------------------------|------------------variation-----------------|
|-----------------------------------|--------------------------------------------|
|--0-0-0--0-0-----------------------|--0-0-0--0-0--------------------------------|
|--0-0-0--0-0---------and-so-on-----|--0-0-0--0-0------10-8-7-0-8-7-5-0----------|
   x x x  x x                          x x x  x x
   
2:35

Git 1 + 2

|----------------------------------------------------------------------------------------|
|-------6-------8-------10-------11------10-10-------10------11------5-------5------6-6--|
|--7-7-(7)-7-7-(7)-7-7-(7)--7-7-(7)--7-7-7--7---7-7-(7)-7-7-(7)-7-7-(7)-7-7-(7)-7-7-7-7--|
|-(0-0)---(0-0)---(0-0)----(0-0)----(0-0-0--0)-(0-0)---(0-0)---(0-0)---(0-0)---(0-0-0-0)-|
|----------------------------------------------------------------------------------------|
|----------------------------------------------------------------------------------------|
|  x x     x x     x x      x x      x x        x x     x x     x x     x x     x x      |
|----------------------------------------------------------------------------------------|
|----------------------------------------------------------------------------------------|
|----------------------------------------------------------------------------------------|
|----------------------------------------------------------------------------------------|
|--0~------------------------------------------0~----------------------------------------|
|--0~------------------------------------------0~----------------------------------------|
                                                           

|----------------------------------------------------------------------------------------|
|-------6-------8-------10-------11------10-10-------10------11------5-------5------6-6--|
|--7-7-(7)-7-7-(7)-7-7-(7)--7-7-(7)--7-7-7--7---7-7-(7)-7-7-(7)-7-7-(7)-7-7-(7)-7-7-7-7--|
|-(0-0)---(0-0)---(0-0)----(0-0)----(0-0-0--0)-(0-0)---(0-0)---(0-0)---(0-0)---(0-0-0-0)-|
|----------------------------------------------------------------------------------------|
|----------------------------------------------------------------------------------------|
|  x x     x x     x x      x x      x x        x x     x x     x x     x x     x x      |
|----------------------------------------------------------------------------------------|
|----------------------------------------------------------------------------------------|
|----------------------------------------------------------------------------------------|
|---------------------------------------------------------------------------8-7----------|
|--8~------------------------------------------8~-----------------------8-8-----8-5------|
|--8~------------------------------------------8~-----------------------8-8--------------|
                                                                        x x

2:59       


Git 1 + 2                                                         

|----------------------------------------------------------------------------------------|---variation--|
|-------6-------8-------10-------11------10-10-------10------11------5-------5------6-6--|----at-end----|
|--7-7-(7)-7-7-(7)-7-7-(7)--7-7-(7)--7-7-7--7---7-7-(7)-7-7-(7)-7-7-(7)-7-7-(7)-7-7-7-7--|-----7-5------|
|-(0-0)---(0-0)---(0-0)----(0-0)----(0-0-0--0)-(0-0)---(0-0)---(0-0)---(0-0)---(0-0-0-0)-|---------7-0--|
|----------------------------------------------------------------------------------------|--------------|
|----------------------------------------------------------------------------------------|--------------|
|  x x     x x     x x      x x      x x        x x     x x     x x     x x     x x                     |
|-----------------------------Git-2---4-parts-----------------------------------------------------------|
|--------------------|---------------------|--------------------|---------------------------------------|
|--7777--7-7-7-7-7---|---------------------|--------------------|---------------------------------------|
|--7777--x-x-7-7-7---|--8888--8-88-8-88-8--|--------------------|------------------------------8-7------|
|--5555--------------|--8888--x-88-x-88----|--0-0000----0-0000--|--8-8888----8-8888----------------8-5--|
|--------------------|---------------------|--0-0000----0-0000--|--8-8888----8-8888---------------------|
   xxxx                 xxxx    xx   xx ph      xxxx      xxxx       xxxx      xxxx 


3:22

Git 1 + 2

|---------------------you-need-to-figure-out-rythm---------------------------------------|
|----------------------------------------------------------------------------------------|
|--14--10--12--9-----14--10--12--9----14--9--10---14--10-12------------------------------|
|--x---x---x---x-----x---x---x---x----x---x--x----x---x--x-------------------------------|
|--12--8---10--7-----12--8---10--7----12--7--8----12--8--10------------------------------|
|----------------------------------------------------------------------------------------|

|-----------------------|---------------------|
|-----------------------|---------------------|
|-----------------------|---------------------|
|-----------------------|----------8-7--------|
|--0000-----------------|--8888--------8-5----|
|--0000-----------------|--8888---------------|

3:45

Git 1 + 2

|----------------------------|
|----------------------------|
|----------------------------|
|----------------------------|
|----------------------------|
|---------0-0--------0-0-0---|
|         x x        x x x   |
|----------------------------|
|----------------------------|
|----------------------------|
|----------------------------|
|----------------------------|
|--0-0-0-------0-0-----------|
   x x x       x x

|------------------------------------------------------------------------------------------|---------|
|------------------------------------------------------------------------------------------|---------|
|------------------------------------------------------------------------------------------|-------7-|
|------------------------------------------------------------------------------------------|-------x-|
|--0-0-0---0--0---0-0--0-0-0---------------------------------------------------------------|--0-0--5-|
|--0-0-0---0--0---0-0--0-0-0-----and-so-on-------------------------------------------------|--0-0--0-|
|  x x x   x  x   x x  x x x                                                               |         |
|------------------------------|-----------------------------------------------------------|---------|
|------------------------------|-----------------------------------------------------------|---------|
|-----------shred--------------|--14--10--12--9-----14--10--12--9----14--9--10---14--10-12-|------10-|
|--0000-3333-2222-55-33-22-33--|--x---x---x---x-----x---x---x---x----x---x--x----x---x--x--|------x--|
|------------------------------|--12--8---10--7-----12--8---10--7----12--7--8----12--8--10-|-0-0--8--|
|------------------------------|-----------------------------------------------------------|-0-0--0--|

            
            
Suggest correction
Creating personal tab
Creating personal tab
You can edit any tab online and save it as your Personal.

You can edit, replace or remove any tab part or add personal notes – all changes will be seen only by you.

Personal tabs can be accessed anytime from any device, even offline.
Learn more »
Give kudos to tab author, rate the tab!
1 2 3 4 5
comments
print report bad tab
guest
You may want to rate the tab now too:
select rating
Wanna post a correction for this tab? Suggest correction