Oops, an error
Loading. Please wait.

Back To The Start Tab

799 views 3 this week
no commentswrite comment
1 2 3 4 5
please rate
add to favorites
launch autoscroll
font size
0
reset
how to read this tab
guitar tuner
Autoscroll
slow
fast
+/-
esc
set tempo
stop
Help us to improve Ultimate-Guitar.com Take our survey!
×
Difficulty
intermediate
-----------------------------------------------------------------------------
Back To The Start- Burn Halo
-----------------------------------------------------------------------------
Tabbed by: Kerry                
Email: theshakinasian@yahoo.com

Tuning: EADGBE(standard)
-----------------------------------------------------------------------------

*This is the acoustic guitar part, but the electric guitar part is basically the 
same except with power chords instead of these chords.

Verse:
     Dm      C
e|---1---1-|-0------0---|
B|---3---3-|-1------1---|
G|---2---2-|-0------0---| X1
D|---0---0-|-2----2-----|
A|---------|-3--3-------|
E|---------|------------|
     Dm      C    
e|---1---1-|-0----------0--|
B|---3---3-|-1--------1---1|
G|---2---2-|-0------0------| X5
D|---0---0-|-2----2--------|
A|---------|-3--3----------|
E|---------|---------------|

Pre-Chorus:

    Bbadd9               C  
e|----------1-------|------------0-------|
B|---------1--1-----|-----------1--1-----|
G|------3-------3---|--------0-------0---| X2
D|-----3----------3-|-------2----------2-|
A|--1---------------|----3---------------|
E|------------------|--------------------|

    Bbadd9             C  
e|--1---------------|--0-----------------|
B|--1---------------|--1-----------------|
G|--3---------------|--0-----------------| X2 (Strum however you want)
D|--3---------------|--2-----------------|
A|--1---------------|--3-----------------|
E|------------------|--------------------|


Chorus: (Strum however you want)

    F                 C                   Bbadd9      
e|--1--------------|--0----------------|--1--------------1---------------|
B|--1--------------|--1----------------|--1--------------1---------------|
G|--2--------------|--0----------------|--3--------------3---------------| X2
D|--3--------------|--2----------------|--3--------------3---------------|
A|--3--------------|--3----------------|--1--------------1---------------|
E|--1--------------|-------------------|---------------------------------|

    Dm                C                   Bbadd9          C
e|--1--------------|--0----------------|--1------------|--0--------------|
B|--3--------------|--1----------------|--1------------|--1--------------|
G|--2--------------|--0----------------|--3------------|--0--------------|
D|--0--------------|--2----------------|--3------------|--2--------------|
A|-----------------|--3----------------|--1------------|--3--------------|
E|-----------------|-------------------|---------------|-----------------|

Verse:

     Dm      C    
e|---1---1-|-0----------0--|    
B|---3---3-|-1--------1---1|    
G|---2---2-|-0------0------| X6 
D|---0---0-|-2----2--------|    
A|---------|-3--3----------|   
E|---------|---------------|    

e|-8-6-5--------------|
B|-------8-6-5-6p5-3--|
G|--------------------| (This riff is played by another guitar)
D|--------------------|
A|--------------------|
E|--------------------|


Pre-Chorus:

    Bbadd9               C  
e|----------1-------|------------0-------|
B|---------1--1-----|-----------1--1-----|
G|------3-------3---|--------0-------0---| X2
D|-----3----------3-|-------2----------2-|
A|--1---------------|----3---------------|
E|------------------|--------------------|

    Bbadd9             C  
e|--1---------------|--0-----------------|
B|--1---------------|--1-----------------|
G|--3---------------|--0-----------------| X2 
D|--3---------------|--2-----------------|
A|--1---------------|--3-----------------|
E|------------------|--------------------|


Chorus: 

    F                 C                   Bbadd9      
e|--1--------------|--0----------------|--1---------------1--------------|
B|--1--------------|--1----------------|--1---------------1--------------|
G|--2--------------|--0----------------|--3---------------3--------------| X2
D|--3--------------|--2----------------|--3---------------3--------------|
A|--3--------------|--3----------------|--1---------------1--------------|
E|--1--------------|-------------------|---------------------------------|

    Dm                C                   Bbadd9          C
e|--1--------------|--0----------------|--1------------|--0--------------|
B|--3--------------|--1----------------|--1------------|--1--------------|
G|--2--------------|--0----------------|--3------------|--0--------------|
D|--0--------------|--2----------------|--3------------|--2--------------|
A|-----------------|--3----------------|--1------------|--3--------------|
E|-----------------|-------------------|---------------|-----------------|

Bridge:
   
    Bbadd9             Am                   G
e|--1---------------|--0-----------------|--3-------------|
B|--1---------------|--1-----------------|--0-------------|
G|--3---------------|--2-----------------|--0-------------| 
D|--3---------------|--2-----------------|--0-------------|
A|--1---------------|--0-----------------|--2-------------|
E|------------------|--------------------|--3-------------|

    Bbadd9             Am                 G                C
e|--1---------------|--0---------------|--3-------------|--0---------------|
B|--1---------------|--1---------------|--0-------------|--1---------------|
G|--3---------------|--2---------------|--0-------------|--0---------------| 
D|--3---------------|--2---------------|--0-------------|--2---------------|
A|--1---------------|--0---------------|--2-------------|--3---------------|
E|------------------|------------------|--3-------------|------------------|

Solo:

e|-------------------------------------------------------------------------|
B|----------10-10-10--10--11p10p8-10-----13-13-13-13--15--11~--------------|
G|---------------------------------------12-12-12-12-----------------------|
D|---------------------------------------14-------14-----------------------|
A|-------------------------------------------------------------------------|
E|-------------------------------------------------------------------------|

e|-------------------------------------------------------------------------|
B|---------10--13-11~--11p10-6---6s8-6~------------------------------------|
G|---------10------------------5-------------------------------------------|
D|---------12--------------------------------------------------------------|
A|-------------------------------------------------------------------------|
E|-------------------------------------------------------------------------|

e|-------------------------------------------------------------------------|
B|---13-----15----11-11p10p8-10p8---8--------------------8-88-10-10--------|
G|---12-----14-------------------10--10p7-10p7-10-10-9~--9-99-10-10--------|
D|---14-14--12-------------------------------------------------------------|
A|-------------------------------------------------------------------------|
E|-------------------------------------------------------------------------|

e|-------------------------------------------------------------------------|
B|-------------------------------------------------------------------------|
G|---s7--5--3--2~----------------------------------------------------------|
D|-------------------------------------------------------------------------|
A|-------------------------------------------------------------------------|
E|-------------------------------------------------------------------------|

Chorus: 

    F                 C                    Bbadd9           Bbadd9
e|--1--------------|--0-----------------|--1-------------|--1-------------|
B|--1--------------|--1-----------------|--1-------------|--1-------------|
G|--2--------------|--0-----------------|--3-------------|--3-------------|X2
D|--3--------------|--2-----------------|--3-------------|--3-------------|
A|--3--------------|--3-----------------|--1-------------|--1-------------|
E|--1--------------|--------------------|----------------|----------------|

    Dm                C                    Bbadd9           C
e|--1--------------|--0-----------------|--1-------------|--0---------------|
B|--3--------------|--1-----------------|--1-------------|--1---------------|
G|--2--------------|--0-----------------|--3-------------|--0---------------|
D|--0--------------|--2-----------------|--3-------------|--2---------------|
A|-----------------|--3-----------------|--1-------------|--3---------------|
E|-----------------|--------------------|----------------|------------------|

Chorus (A little different): 

    F                 C                Bbadd9          (Bbadd9)
e|--1--------------|--0-------------|--1------------|--13-13----13-13-------|
B|--1--------------|--1-------------|--1------------|--12-12----12-12-11-10~|
G|--2--------------|--0-------------|--3------------|--10----10-10----------|
D|--3--------------|--2-------------|--3------------|-----------------------|
A|--3--------------|--3-------------|--1------------|-----------------------|
E|--1--------------|----------------|---------------|-----------------------|


    F                 C                Bbadd9          (Bbadd9)
e|--1--------------|--0-------------|--1------------|-----------------------|
B|--1--------------|--1-------------|--1------------|-----------------------|
G|--2--------------|--0-------------|--3------------|-------7---------------|
D|--3--------------|--2-------------|--3------------|--7-10---10-8-7--------|
A|--3--------------|--3-------------|--1------------|-----------------------|
E|--1--------------|----------------|---------------|-----------------------|


    Dm                C                Bbadd9          C                 C
e|--1--------------|--0-------------|--1------------|--0--------------|--0--|
B|--3--------------|--1-------------|--1------------|--1--------------|--1--|
G|--2--------------|--0-------------|--3------------|--0--------------|--0--|
D|--0--------------|--2-------------|--3------------|--2--------------|--2--|
A|-----------------|--3-------------|--1------------|--3--------------|--3--|
E|-----------------|----------------|---------------|-----------------|-----|

Outro:

     Dm      C
e|---1---1-|-0------0---|
B|---3---3-|-1------1---|
G|---2---2-|-0------0---| X3
D|---0---0-|-2----2-----|
A|---------|-3--3-------|
E|---------|------------|

     Dm
e|---1----|
B|---3----|
G|---2----|
D|---0----|
A|--------|
E|--------|

A video of me playing this tab if you need it for the timing and stuff: 
http://www.youtube.com/watch?v=qj0orwMrxB0

************************************

| s   slide 
| h   hammer-on
| p   pull-off
| ~   vibrato
Suggest correction
Give kudos to tab author, rate the tab!
1 2 3 4 5
comments
print report bad tab
guest
You may want to rate the tab now too:
select rating
Wanna post a correction for this tab? Suggest correction