Oops, an error
Loading. Please wait.

Dirty Little Girl Tab

version 1
version 1

Intro

Whole song

Interactive

5,412 views 1 this week
2 commentsread comments
1 2 3 4 5
1 last vote to show rating
add to favorites
launch autoscroll
font size
0
reset
how to read this tab
guitar tuner
Autoscroll
slow
fast
+/-
esc
set tempo
stop
Help us to improve Ultimate-Guitar.com Take our survey!
×
Burn Halo
Dirty Little Girl

Intro:
e|----------------------------------------------------|
B|----------------------------------------------------|
G|----------------------------------------------------|
D|----------------------------------------------------|
A|-0-3p0-3~-3------------0----0-3p0-3~-3------6-5-3-0-|
D|-0---------6-5-6-5-3-5-0----0---------6-5-6-------0-|

Verse:
e|----------------------------------------------------|
B|----------------------------------------------------|
G|----------------------------------------------------|
D|----------------------------------------------------|
A|-0-0-00--0-0-00--0-0-00----3------------------------|
D|-0-0-00--0-0-00--0-0-00------6-5-6-5-3-5------------|
Suggest correction
Give kudos to tab author, rate the tab!
1 2 3 4 5
comments
print report bad tab
2 comments total.
+1 reply
NX010 10 Apr 06, 2009 04:49 PM

i think the intro should be this
e|------------------------------------------------------------|
B|------------------------------------------------------------|
G|------------------------------------------------------------|
D|------------------------------------------------------------|
A|-0-0-3p0-3~-3p0---------------0-0-3p0-3~-3p0--------3-4-5-0-|
D|-0-0-----------6-5-3-0-3-5-6--0-0------------6-5-3-0------0-|

0 reply
NX010 10 Apr 06, 2009 04:55 PM

and the verse like this (sorry for double posting)
e|----------------------------------------------------|
B|----------------------------------------------------|
G|----------------------------------------------------|
D|----------------------------------------------------|
A|-0-00--0-00--0-00----/3--------------0--------------|
D|-0-00--0-00--0-00------6-5-3-0-3-5-6-0--------------|

guest
You may want to rate the tab now too:
select rating
Wanna post a correction for this tab? Suggest correction