Oops, an error
Loading. Please wait.

Dirty Little Girl Tab

version 1
version 1

Whole song

Interactive

4,894 views 3 this week
1 commentread comment
1 2 3 4 5
please rate
add to favorites
launch autoscroll
font size
0
reset
how to read this tab
guitar tuner
Autoscroll
slow
fast
+/-
esc
set tempo
stop
Help us to improve Ultimate-Guitar.com Take our survey!
×
Author
Tuning
D A D G B E
This is how I play it, and I'm stilling working on Syn's solo.

                            PH 
     Q    Q    Q    E  S    S  
E||---------------------------|
B||---------------------------|
G||------------------------/3-|
D||---------------------------|
A||---------------------------|
D||---------------------------|


  E  S  S E  S S S S S S S E.   
-------------------------------|
-------------------------------|
-------------------------------|
-------------------------------|
--0--3p-0-3--3-------------0---|
--0------------6-5-6-5-3-5-0---|


  E  S  S E  S S S S S S S E.   
-------------------------------|
-------------------------------|
-------------------------------|
-------------------------------|
--0--3p-0-3--3-------6-5-3-0---|
--0------------6-5-6-------0---|


  E  S  S E  S S S S S S S E.   
-------------------------------|
-------------------------------|
-------------------------------|
-------------------------------|
--0--3p-0-3--3-------------0---|
--0------------6-5-6-5-3-5-0---|


  E  S  S E  S S S S S S S E.   
-------------------------------|
-------------------------------|
-------------------------------|
-------------------------------|
--0--3p-0-3--3-------6-5-3-0---|
--0------------6-5-6-------0---|


  Whoa, Yeah!!                            
  E            S  S E  S S S S S S S E.   
-----------------------------------------|
-----------------------------------------|
-----------------------------------------|
-----------------------------------------|
--0------------3p-0-3--3-------------0---|
--0----------------------6-5-6-5-3-5-0---|


  E  S  S E  S S S S S S S E.   
-------------------------------|
-------------------------------|
-------------------------------|
-------------------------------|
--0--3p-0-3--3-------6-5-3-0---|
--0------------6-5-6-------0---|


  E  S  S E  S S S S S S S E.   
-------------------------------|
-------------------------------|
-------------------------------|
-------------------------------|
--0--3p-0-3--3-------------0---|
--0------------6-5-6-5-3-5-0---|


  E  S  S E  S S S S S S S E.   
-------------------------------|
-------------------------------|
-------------------------------|
-------------------------------|
--0--3p-0-3--3-------6-5-3-0---|
--0------------6-5-6-------0---|


    H        H         
|---------------------|
|---------------------|
|*--------------------|
|*--------------------|
|---0--------0--------|
|---0--------0--------|


  H        E  S S S S S S  4x
---------------------------||
---------------------------||
--------------------------*||
--------------------------*||
--0--------3--3------------||
--0-------------6-5-6-5-3--||


  S S S S S S S S S S S S S S S S  
----------------------------------|
----------------------------------|
----------------------------------|
----------------------------------|
--7-7-7---7---7---7-7-7---7---7---|
--7-7-7---7---7---7-7-7---7---7---|


  S S S S S S S S S S S S S S S S  
----------------------------------|
----------------------------------|
----------------------------------|
----------------------------------|
--5-0-5-0-5-0-5-0-5-0-5-0-5-0-5-0-|
--5-0-5-0-5-0-5-0-5-0-5-0-5-0-5-0-|


  S S S S S S S S S S S S S S S S  
----------------------------------|
----------------------------------|
----------------------------------|
----------------------------------|
--7-7-7---7---7---7-7-7---7---7---|
--7-7-7---7---7---7-7-7---7---7---|


   S  S  S  S  S  S  S  S  S  S  S  S  Q      
---------------------------------------------|
---------------------------------------------|
---------------------------------------------|
---------------------------------------------|
--10-10-10-10-10-10-10-10-10-10-10-10-10\----|
--10-10-10-10-10-10-10-10-10-10-10-10-10\----|


    S S S S S S S S S S S S S S S S  
|-----------------------------------|
|-----------------------------------|
|*----------------------------------|
|*----------------------------------|
|---0-0-0-0-0-0-0-0-0-0-0-0-0-0-0-0-|
|---0-0-0-0-0-0-0-0-0-0-0-0-0-0-0-0-|


  S S S S S S S S S S S S S S S S  
----------------------------------|
----------------------------------|
----------------------------------|
----------------------------------|
--3-3-3-3-3-3-3-3-3-3-3-3-3-3-3-3-|
--3-3-3-3-3-3-3-3-3-3-3-3-3-3-3-3-|


  S S S S S S S S S S S S S S S S  
----------------------------------|
----------------------------------|
----------------------------------|
----------------------------------|
--5-5-5-5-5-5-5-5-5-5-5-5-5-5-5-5-|
--5-5-5-5-5-5-5-5-5-5-5-5-5-5-5-5-|


  S  S  E  S  S E  S  S E  S S S S    
------------------------------------||
------------------------------------||
-----------------------------------*||
-----------------------------------*||
---------------------------x-x-x-x--||
--3p-0h-3--3p-0-3--3p-0-3--x-x-x-x--||


  S S S S S S S S S S S S S S S S  
----------------------------------|
----------------------------------|
----------------------------------|
----------------------------------|
--3-3-3-3-3-3-3-3-5-5-5-5-5-5-5-5-|
--3-3-3-3-3-3-3-3-5-5-5-5-5-5-5-5-|


  E  S  S E  S S S S S S S E.   
-------------------------------|
-------------------------------|
-------------------------------|
-------------------------------|
--0--3p-0-3--3-------------0---|
--0------------6-5-6-5-3-5-0---|


  E  S  S E  S S S S S S S E.   
-------------------------------|
-------------------------------|
-------------------------------|
-------------------------------|
--0--3p-0-3--3-------6-5-3-0---|
--0------------6-5-6-------0---|


    H        H         
|---------------------|
|---------------------|
|*--------------------|
|*--------------------|
|---0--------0--------|
|---0--------0--------|


  H        E  S S S S S S  4x
---------------------------||
---------------------------||
--------------------------*||
--------------------------*||
--0--------3--3------------||
--0-------------6-5-6-5-3--||


  S S S S S S S S S S S S S S S S  
----------------------------------|
----------------------------------|
----------------------------------|
----------------------------------|
--7-7-7---7---7---7-7-7---7---7---|
--7-7-7---7---7---7-7-7---7---7---|


  S S S S S S S S S S S S S S S S  
----------------------------------|
----------------------------------|
----------------------------------|
----------------------------------|
--5-0-5-0-5-0-5-0-5-0-5-0-5-0-5-0-|
--5-0-5-0-5-0-5-0-5-0-5-0-5-0-5-0-|


  S S S S S S S S S S S S S S S S  
----------------------------------|
----------------------------------|
----------------------------------|
----------------------------------|
--7-7-7---7---7---7-7-7---7---7---|
--7-7-7---7---7---7-7-7---7---7---|


   S  S  S  S  S  S  S  S  S  S  S  S  Q      
---------------------------------------------|
---------------------------------------------|
---------------------------------------------|
---------------------------------------------|
--10-10-10-10-10-10-10-10-10-10-10-10-10\----|
--10-10-10-10-10-10-10-10-10-10-10-10-10\----|


    S S S S S S S S S S S S S S S S  
|-----------------------------------|
|-----------------------------------|
|*----------------------------------|
|*----------------------------------|
|---0-0-0-0-0-0-0-0-0-0-0-0-0-0-0-0-|
|---0-0-0-0-0-0-0-0-0-0-0-0-0-0-0-0-|


  S S S S S S S S S S S S S S S S  
----------------------------------|
----------------------------------|
----------------------------------|
----------------------------------|
--3-3-3-3-3-3-3-3-3-3-3-3-3-3-3-3-|
--3-3-3-3-3-3-3-3-3-3-3-3-3-3-3-3-|


  S S S S S S S S S S S S S S S S  
----------------------------------|
----------------------------------|
----------------------------------|
----------------------------------|
--5-5-5-5-5-5-5-5-5-5-5-5-5-5-5-5-|
--5-5-5-5-5-5-5-5-5-5-5-5-5-5-5-5-|


  S  S  E  S  S E  S  S E  S S S S    
------------------------------------||
------------------------------------||
-----------------------------------*||
-----------------------------------*||
---------------------------x-x-x-x--||
--3p-0h-3--3p-0-3--3p-0-3--x-x-x-x--||


  S S S S S S S S S S S S S S S S        
----------------------------------|----||
----------------------------------|----||
----------------------------------|----||
----------------------------------|----||
--3-3-3-3-3-3-3-3-5-5-5-5-5-5-5-5-|----||
--3-3-3-3-3-3-3-3-5-5-5-5-5-5-5-5-|----||




Duration Legend
---------------
W - whole
H - half
Q - quarter
E - 8th
S - 16th
T - 32nd
X - 64th
. - note dotted
|-n-|  - n-tuplets


Tablature Legend
----------------
L - tied note
x - dead note
g - grace note
(n) - ghost note
> - accentuded note
NH - natural harmonic
AH - artificial harmonic
TH - tapped harmonic
SH - semi harmonic
PH - pitch harmonic
h - hammer on
p - pull off
b - bend
br - bendRelease
pb - preBend
pbr - preBendRelease
brb - bendReleaseBend
\n/ - tremolo bar dip
\n - tremolo bar dive
-/n - tremolo bar Release up
/n\ - tremolo bar inverted dip
/n - tremolo bar return
-\n - tremolo bar Release down
S - shift slide
s - legato slide
/ -  slide into from below or out of upwards
\ -  slide into from above or out of downwards
~ - vibrato
W - wide vibrato
tr - trill
TP - tremolo picking
T - tapping
S - slap
P - pop
< - fade in
^ - brush up
v - brush down
Suggest correction
What's this?
You can suggest a correction to this tab. Community and Mods will review your correction and vote to approve or reject it.
comments
We did not receive enough feedback on this tab! Please rate:
print report bad tab
1 2 3 4 5
1 comment total.
+1 reply
M.Vengeance 182 wrote on May 3 2009, 06:32 pm

hurry up with the solo plz!!

guest
You may want to rate the tab now too:
select rating
Please do not post tabs as comments. Select "correction" instead!