Oops, an error
Loading. Please wait.

Here With Me Tab

version 1
version 1

Whole song

2,068 views 1 this week
6 commentsread comments
1 2 3 4 5
please rate
add to favorites
launch autoscroll
font size
0
reset
how to read this tab
guitar tuner
Autoscroll
slow
fast
+/-
esc
set tempo
stop
Help us to improve Ultimate-Guitar.com Take our survey!
×
Author
This is my first tab ive ever done. so it should be just about 90% right. Im not very
at solos so i tabbed it the best i could so im open to suggestions for anything i missed
done. I done this in standard tuning. Ive never figured out how to do drop d if its
in drop d. if someone can tell me how to delete this tab. ill delete it. it sounds right 
me. when i play it. my gf and friends says it right just a few minor things and thats 
so im deleting this tab when i can figure out how to do it. and my profile on here.

Intro 3x                     end with this
-------------------------------------------|
-12--14-13-12--14-13-12-----------------15-|
---15--------13--------------------12-15---|
------------------------------12-15--------|
-------------------------------------------|
-------------------------------------------|

Verse just keep strumming the 7-5 until you hear the change then its the 9-7
---------|
---------|
---------|
---------|
-7---9-9-|
-5---7-7-|

prechorus
-------------------------------|
-----9-11-10-9-----------------|
-9-11---------9-11-------------|
-------------------------------|
-------------------------------|
-------------------------------|

chorus
------------------------------------------------------------------------|
-----------------9-11-10----------------9-14-13-12--14-13-12------------|
-9-7---9-7---9-11-------9-7---9-7---9-11----------13--------13-12-------|
----9-7---9-7--------------9-7---9-7------------------------------------|
------------------------------------------------------------------------|
------------------------------------------------------------------------|

Solo
-------------------------------------------------------------------------------------------|
-12-14-12-14---------------------15-17-15-17-15-17-15-17-17-12-15-13-----------------------|
------------13-14-12--------15-17-----------------------------------15-14-12--------12-15--|
--------------------12-15-14------------------------------------------------15-14-12-------|
-------------------------------------------------------------------------------------------|
-------------------------------------------------------------------------------------------|

--------------------------------------------------------------------------------------|
-12-15-17-15-17----------------9-12-12-13-14-13-12-15-16-17-16-15---------------------|
---------------15-17-12-14-9-11----------------------------------15-17-12-14-9-11-7-9-|
--------------------------------------------------------------------------------------|
--------------------------------------------------------------------------------------|
--------------------------------------------------------------------------------------|

End song with this
-------------------------------------------------------|
-------------------------------------------------------|
-9-11-12-11-9--------------9-11-12-9-10-9-11-----------|
-------------9-12-9-11-12-9-----------------9-11-------|
------------------------------------------------9-11-7-|
-----------------------------------------------------9-|
Suggest correction
What's this?
You can suggest a correction to this tab. Community and Mods will review your correction and vote to approve or reject it.
comments
We did not receive enough feedback on this tab! Please rate:
print report bad tab
1 2 3 4 5
6 comments total. Showing first comments.
0 reply
#81 cody #81 45 wrote on May 23 2009, 01:07 pm

awful sounds nothing like it would some1 post the correct tab

+1 reply
val0 73 wrote on June 23 2009, 02:15 pm

Play it like this instead in the begining
Two times
e--------------------------------------
b--15----------------------------------
g-----12-16-12-16-17-16-14-12----------
d--------------------------------------
a--------------------------------------
D--------------------------------------

Then at third time like this
e-------------------------------------
b-15----------------------------------
g----12-16-12-16-17-16-14-12-7-9-7-5-4-
d-------------------------------------5
a-------------------------------------
D-------------------------------------

+1 reply
val0 73 wrote on June 23 2009, 02:21 pm

No change the 5 at the d string to a 8 on b string :D

guest
You may want to rate the tab now too:
select rating
Please do not post tabs as comments. Select "correction" instead!