Oops, an error
Loading. Please wait.

Here With Me Tab

version 3
version 3

Whole song

513 views 1 this week
no commentswrite comment
1 2 3 4 5
please rate
add to favorites
launch autoscroll
font size
0
reset
how to read this tab
guitar tuner
Tab Pro tools
  • play this tab
  • loop segment
  • change instrument
  • show fretboard
  • metronome
×
Best way to learn
"Here With Me"
Autoscroll
slow
fast
+/-
esc
set tempo
stop
Difficulty
Tuning
intermediate
D A D G B E
                                Burn Halo - Here With Me


Found Two Separate Tabs For The Song So I Put Them Together And It Sounds Right To Me 
Should Go TO timmy88 And val0

e|--------------------------------------|
b|--15----------------------------------|
g|-----12-16-12-16-17-16-14-12----------|
d|--------------------------------------|
a|--------------------------------------|
D|--------------------------------------|

e|--------------------------------------|
b|--15----------------------------------|
g|-----12-16-12-16-17-16-14-12----------|
d|--------------------------------------|
a|--------------------------------------|
D|--------------------------------------|

e|----------------------------------------|
b|-15-----------------------------------8-|
g|----12-16-12-16-17-16-14-12-7-9-7-5-4---|
d|----------------------------------------|
a|----------------------------------------|
D|----------------------------------------|


Intro:

e|-----------------------------------------------------------------------------|
b|-----------------------------------------------------------------------------|
g|-----------------------------------------------------------------------------|
d|-----------------------------------------------------------------------------|
a|-55555555555555-101010101010101010101010101010-77777777777777-55555555555555-|
D|-55555555555555-101010101010101010101010101010-77777777777777-55555555555555-|

Verse:
 P.M------------ P.M-------------------------- P.M------------ P.M--------------|
e|------------------------------------------------------------------------------|
b|------------------------------------------------------------------------------|
g|------------------------------------------------------------------------------|
d|------------------------------------------------------------------------------|
a|-55555555555555-101010101010101010101010101010-77777777777777-55555555555555--|
D|-55555555555555-101010101010101010101010101010-77777777777777-55555555555555--|

 P.M------------ P.M-------------------------- P.M------------ P.M--------------|
e|------------------------------------------------------------------------------|
b|------------------------------------------------------------------------------|
g|------------------------------------------------------------------------------|
d|------------------------------------------------------------------------------|
a|-55555555555555-101010101010101010101010101010-77777777777777-55555555555555--|
D|-55555555555555-101010101010101010101010101010-77777777777777-55555555555555--|


Pre Chorus:

e|------------------------------------------------------------------|
b|------------------------------------------------------------------|
g|------------------------------------------------------------------|
d|------------------------------------------------------------------|
a|--101010101010101010101010101010-12121212121212121212121212121212-|
D|--101010101010101010101010101010-12121212121212121212121212121212-|

Chorus:

e|---------------------------------------------------------------------|
b|---------------------------------------------------------------------|
g|---------------------------------------------------------------------|
d|--1212121212121212-77777777-99999999-55555555------------------------|
a|--1010101010101010-55555555-77777777-33333333------------------------|
D|---------------------------------------------------------------------|

e|---------------------------------------------------------------------|
b|---------------------------------------------------------------------|
g|---------------------------------------------------------------------|
d|--1212121212121212-77777777-99999999-55555555------------------------|
a|--1010101010101010-55555555-77777777-33333333------------------------|
D|---------------------------------------------------------------------| X2 (Intro, 
Pre Chours & Chorus.)


Bridge:

e|-----------------------------------------------------------|
b|-----------------------------------------------------------|
g|-----------------------------------------------------------|
d|-99999999999999-77777777777777-55555555555555--------------| X2
a|-77777777777777-55555555555555-33333333333333--------------|
D|-----------------------------------------------------------|

Solo:

e|-------------------------------------------------------------------------------------------|
b|-12-14-12-14---------------------15-17-15-17-15-17-15-17-17-12-15-13-----------------------|
g|------------13-14-12--------15-17-----------------------------------15-14-12--------12-15--|
d|--------------------12-15-14------------------------------------------------15-14-12-------|
a|-------------------------------------------------------------------------------------------|
D|-------------------------------------------------------------------------------------------|

e|--------------------------------------------------------------------------------------|
b|-12-15-17-15-17----------------9-12-12-13-14-13-12-15-16-17-16-15---------------------|
g|---------------15-17-12-14-9-11----------------------------------15-17-12-14-9-11-7-9-|
d|--------------------------------------------------------------------------------------|
a|--------------------------------------------------------------------------------------|
D|--------------------------------------------------------------------------------------|

(Solo Rhytem)

e|------------------------------------------------------------|
b|------------------------------------------------------------|
g|------------------------------------------------------------|
d|-121212121212121212-777777777-9999-7777-5555----------------| X2
a|-101010101010101010-555555555-7777-5555-3333----------------|
D|------------------------------------------------------------|


Chorus:

e|---------------------------------------------------------------------|
b|---------------------------------------------------------------------|
g|---------------------------------------------------------------------|
d|--1212121212121212-77777777-99999999-55555555------------------------|
a|--1010101010101010-55555555-77777777-33333333------------------------|
D|---------------------------------------------------------------------|

song ends on this
e|-------------------------------------------------------|
b|-------------------------------------------------------|
g|-9-11-12-11-9--------------9-11-12-9-10-9-11-----------|
d|-------------9-12-9-11-12-9-----------------9-11-------|
a|------------------------------------------------9-11-7-|
D|-----------------------------------------------------9-|

Preety Hard Timing But Keep WIth It
comments
We did not receive enough feedback on this tab! Please rate:
print report bad tab
1 2 3 4 5
I want to post or [tab]
guest
You may want to rate the tab now too:
select rating
Please do not post tabs as comments. Select "correction" instead!