Oops, an error
Loading. Please wait.

Threw It All Away Tab

2,340 views 18 this week
no commentswrite comment
1 2 3 4 5
please rate
add to favorites
launch autoscroll
font size
0
reset
how to read this tab
guitar tuner
Tab Pro tools
  • play this tab
  • loop segment
  • change instrument
  • show fretboard
  • metronome
×
Best way to learn
"Threw It All Away"
Autoscroll
slow
fast
+/-
esc
set tempo
stop
Contributor
Difficulty
Tuning
intermediate
D A D G B E
-----------------------------------------------------------------------------
                             THREW IT ALL AWAY - Burn Halo
-----------------------------------------------------------------------------

this is my first tab so go easy on me...let me know if I made any mistakes!!

Tabbed by: ShocKuMz
Email: shockumz@hotmail.com

Tuning: Drop D

||INTRO||

Guitar 2:
e |----------12~------12---12----------------------------13-12----|
B |-----15-----------------------13----13---13-------15-------15--|
G |---14---14----10-12--12--12-10----12---12---12--14--14-------14|
D |-12-----------------------------10------------12---------------|
A |---------------------------------------------------------------|
D |---------------------------------------------------------------| x2


Guitar 1:
e |------------------------------------------|
B |-/15~--15h17-13~------13~---13-13h15~-----|
G |--------------------12--------------------|
D |------------------------------------------|
A |------------------------------------------|
D |------------------------------------------| x2

Guitar 2:
e |------------------------------------------|
B |------------------------------------------|
G |------------------------------------------|
D |--0~--------------------------------------|
A |--0~--------------------------------------|
D |--0~--------------------------------------| x2


Guitar 1:
e |-17-13-----------------------17-13------13-15b17r15-13------|
B |------15--------------------------15--15--------------15~---|
G |--------14--------------------------14----------------------|
D |----------15--15h1715-14~-----------------------------------|
A |------------12----------------------------------------------|
D |------------------------------------------------------------|

Guitar 2:
e |------------------------------------------------------------|
B |------------------------------------------------------------|
G |------------------------------5~-----------------7~---------|
D |-0~-----------2----3~---------5~-----------------7----------|
A |-0~-----------2----3~---------3~-----------------5~---------|
D |-0~-----------2----3~---------------------------------------|


Guitar 1:                     strum this really fast!!!
e |-17-13-----------------------------------------------------------------|
B |------15---------------------------------------------------------13-15~|
G |--------14------------------------12-----12-14--12-14-15-12-14-15------|
D |----------15--151715-14~--12-14-15--14-15-----15-----------------------|
A |------------12---------------------------------------------------------|
D |-----------------------------------------------------------------------|

Guitar 2:
e |--------------------------------------------------------------|
B |--------------------------------------------------------------|
G |-----------------------------5~----------------------------7~-|
D |-0~-----------2---3~---------5~----------------------------7~-|
A |-0~-----------2---3~---------3~----------------------------5~-|
D |-0~-----------2---3~------------------------------------------|



||VERSE||

Guitar 1:
e |---------1------------------------------------------------|
B |-----3-----3---------1~---------------1-----------3~------|
G |---2---2-----2-----2--------------0-----0-------2---------|
D |-0-------------0-3--------------2---2-----2---0-----------|
A |------------------------------3-------------3-------------|
D |----------------------------------------------------------| x3

                                         (only play this end part the
                                             fourth time through)       
Guitar 1:
e |---------1--------------------------------------------1--------|
B |-----3-----3---------1~---------------1-----------3-----3------|
G |---2---2-----2-----2--------------0-----0-------2---2-----2----|
D |-0-------------0-3--------------2---2-----2---0-------------0--|
A |------------------------------3-------------3------------------|
D |---------------------------------------------------------------|

Guitar 1:
e |---------1------------------------------------------------|
B |-----3-----3---------1~---------------1-----------3~------|
G |---2---2-----2-----2--------------0-----0-------2---------|
D |-0-------------0-3--------------2---2-----2---0-----------|
A |------------------------------3-------------3-------------|
D |----------------------------------------------------------| x2



||CHORUS||

(not sure on the strum pattern, just improv it)

Guitar 1:
e |-----------------------------------------------------|
B |-----------------------------------------------------|
G |---------------5--5--5----7---77--7---77--7----------|
D |-2-x-3----3----5--5--5----7---77--7---77--7----------|
A |-2-x-3----3----3--3--3----5---55--5---55--5----------|
D |-2-x-3----3------------------------------------------|

Guitar 1:
e |-------------------------------------------------|
B |-------------------------------------------------|
G |-----------5--5--5----7---77--7---77--7----------|
D |-3----3----5--5--5----7---77--7---77--7----------|
A |-3----3----3--3--3----5---55--5---55--5----------|
D |-3----3------------------------------------------| x2

Guitar 1:
e |-------------------------------------------------|
B |-------------------------------------------------|
G |-----------5--5--5----7~---7~---7~---------------|
D |-3----3----5--5--5----7~---7~---7~---------------|
A |-3----3----3--3--3----5~---5~---5~---------------|
D |-3----3------------------------------------------|



REPEAT VERSE

REPEAT CHORUS



||BRIDGE||

                                    |    repeat this area     |
Guitar 1:
e |-----------------------------------------------------------|
B |-----------------------------------------------------------|
G |---------------------------------------------------------7-|
D |-0-0-0-0-0-0-0-0-0-0-0-0-0-0-0-0-0---0---0---0-3-0-5-0-7-7-|
A |-0-0-0-0-0-0-0-0-0-0-0-0-0-0-0-0-0---0---0---0-3-0-5-0-7-5-|
D |-0-0-0-0-0-0-0-0-0-0-0-0-0-0-0-0-0---0---0---0-3-0-5-0-7---|
    . . . . . . . . . . . . . . . .

                                    |    repeat this area     |
Guitar 2:
e |-----------------------------------------------------------|
B |-----------------------------------------------------------|
G |-----------------7-7-7-7-7-7-7-7-------------------------7-|
D |-0-0-0-0-0-0-0-0-x-x-x-x-x-x-x-x-0---0---0---0-3-0-5-0-7-7-|
A |-0-0-0-0-0-0-0-0-5-5-5-5-5-5-5-5-0---0---0---0-3-0-5-0-7-5-|
D |-0-0-0-0-0-0-0-0-----------------0---0---0---0-3-0-5-0-7---|
    . . . . . . . .



||SOLO||

Guitar 2:
e |---------------------------|
B |---------------------------|
G |-------------------------7-|
D |-0---0---0---0-3-0-5-0-7-7-|
A |-0---0---0---0-3-0-5-0-7-5-|
D |-0---0---0---0-3-0-5-0-7---| repeat a million times lol

Guitar 1:
e |----------------------------------------------------------|
B |-/15~--15h17-13\------13~---13-13h15-1718171517181715-15~-|
G |-------------------/12------------------------------------|
D |----------------------------------------------------------|
A |----------------------------------------------------------|
D |----------------------------------------------------------|

Guitar 1:
e |------------------------------------------------------/22-|
B |-15h17-13\------13~-13------------------------12h13h15----|
G |-------------/12--------------12h14h15--------------------|
D |----------------------12h14h15--------12h14h15------------|
A |----------------------------------------------------------|
D |----------------------------------------------------------|

Guitar 1:
e |17p13--17p13--17p1317p13--17p13--17p1317p13--17p13--17p1317p13---|
B |-----15-----15----------15-----15----------15-----15----------15-|
G |-----------------------------------------------------------------|
D |-----------------------------------------------------------------|
A |-----------------------------------------------------------------|
D |-----------------------------------------------------------------|

Guitar 1:
e |17p13--17p13-15p12--15p12--15p1215p12--15p12--15p1215p12--15p12--|
B |-----15-----------13-----13----------13-----13----------13-----13|
G |-----------------------------------------------------------------|
D |-----------------------------------------------------------------|
A |-----------------------------------------------------------------|
D |-----------------------------------------------------------------|

Guitar 1:
e |15p1215p12--15p12--15p12-13p10--13p10--13p1013p10--13p10--13p10|
B |----------13-----13-----------11-----11----------11-----11-----|
G |---------------------------------------------------------------|
D |---------------------------------------------------------------|
A |---------------------------------------------------------------|
D |---------------------------------------------------------------|

Guitar 1:
e |13p10--13p10--13p1013p10--13p10--13p10-12~-10h12p10-9~-9h10p9----|
B |-----11-----11----------11-----11----------------------------10~-|
G |-----------------------------------------------------------------|
D |-----------------------------------------------------------------|
A |-----------------------------------------------------------------|
D |-----------------------------------------------------------------|

Guitar 1:
e |---------|
B |---------|
G |-7-\5~---|
D |---------|
A |---------|
D |---------|



REPEAT CHOURUS



||OUTRO||

still working on the outro at the moment...lots of guitars going on at once lol

************************************

| /   slide up
| \   slide down
| h   hammer-on
| p   pull-off
| ~   vibrato
| +   harmonic
| x   Mute note
| b   Bend
| pb  Pre-bend
| br  Bend release
| pbr Pre-bend release
| brb Bend release bend

************************************
comments
We did not receive enough feedback on this tab! Please rate:
print report bad tab
1 2 3 4 5
I want to post or [tab]
guest
You may want to rate the tab now too:
select rating
Please do not post tabs as comments. Select "correction" instead!