Oops, an error
Loading. Please wait.

The Age In Which Tomorrow Brings tab

version 1
version 1

Whole song

Interactive

483 views 9 this week
3 commentsread comments
1 2 3 4 5
1 last vote to show rating
add to favorites
×
Save as Personal and add changes to this tab that will be seen only by you. Learn more ›
×
You can save this tab as Personal to edit and correct it or add notes. All changes will be seen only by you. Learn more »
launch autoscroll
font size
0
reset
how to read this tab
guitar tuner
edit
Autoscroll
slow
fast
+/-
esc
set tempo
stop
This is an AWEOSME song from Burn In Silence
Burn In Silence isnt really a big band YET but they should be

heres the bands myspace
http://www.myspace.com/burninsilence  

and heres more Burn In Silence stuff
http://www.burninsilence.tv/

should be pretty easy to follow.
drop D

* = palm mute
~ = let ring
p = pull off
t = tremolo pick



Guitar 1 and 2
E|------------------------------------------------------------------|    |
B|------------------------------------------------------------------|    |
G|------------------------------------------------------------------|    |
D|-2-2-2--2-2-2-2--2-2-2-2--2-2-2-2--6-6-6--6-6-6-6--4-4-4--4-4-4-4-|X3  |
A|-2-2-2--2-2-2-2--2-2-2-2--2-2-2-2--6-6-6--6-6-6-6--4-4-4--4-4-4-4-|    |
D|-2-2-2--2-2-2-2--2-2-2-2--2-2-2-2--6-6-6--6-6-6-6--4-4-4--4-4-4-4-|    |
   * *    * * *    * * *    * * *    * *    * * *    * *    * * *        |
                                                                         |I
guitar 2 plays this after playing above measure TWICE                    |N
(comes in at 0:20)                                                       |T
E|------------------------------------|                                  |R
B|---------------------------5-4-2-4-2|                                  |O
G|---4-3-6----4-3------4-3-6----------|                                  |
D|-2--------2-----4--2----------------|                                  |
A|------------------------------------|                                  |
D|------------------------------------|                                  |
  tttttttttttttttttttttttttttttttttttt                                   |
                                                                         |
Guitar 1 (Plays this is after playing the first measure 3 times)         |
E|-----------------------------------------------------------------|     |
B|-----------------------------------------------------------------|     |
G|-----------------------------------------------------------------|     |
D|-2-2-2--2-2-2-2--2-2-2-2--2-2-2-2--6-6-6--6-6-6-6--4-4--4--444444|     |
A|-2-2-2--2-2-2-2--2-2-2-2--2-2-2-2--6-6-6--6-6-6-6--4-4--4--444444|     |
D|-2-2-2--2-2-2-2--2-2-2-2--2-2-2-2--6-6-6--6-6-6-6--4-4--4--444444|     |
   * *    * * *    * * *    * * *    * *    * * *    * *     ******      |

GUITAR 1 and 2                 
E|----------------------------------------------------------|            |B
B|----------------------------------------------------------|            |R
G|----------------------------------------------------------|            |E
D|-2-2222--2222--666-66-666-66--2-2222--2222--444-44-444-44-|            |A
A|-2-2222--2222--666-66-666-66--2-2222--2222--444-44-444-44-|X2          |K
D|-2-2222--2222--666-66-666-66--2-2222--2222--444-44-444-44-|            |D
   * ****  ****  *** ** *** **  * ****  ****  *** ** *** **              |O
                                                                         |W
                                                                         |N

GUITAR 1
E|------------------------------------|                                  |
B|------------------------------------|                                  |
G|------------------------------------|                                  |
D|-2~--6~---2~--4~---2~--6~---2~--4~--|                                  |B
A|-2~--6~---2~--4~---2~--6~---2~--4~--|                                  |R
D|-2~--6~---2~--4~---2~--6~---2~--4~--|                                  |I
                                                                         |D
GUITAR 2 you can hear it in the background and when to come in           |G
E|----------------------------------------------------|                  |E
B|----------------------------------------------------|                  |
G|--6-4---------6-4---6-4------6-4------6-4-----------|                  |
D|------6-4--------6-4---6-4------6-4------6-4-6-4----|                  |
A|------------------------------------------------6-4-|                  |
D|----------------------------------------------------|                  |

Guitar 1
E|------------------------------------------------------------------|    |
B|------------------------------------------------------------------|    |
G|------------------------------------------------------------------|    |
D|-2-2-2--2-2-2-2--2-2-2-2--2-2-2-2--6-6-6--6-6-6-6--4-4-4--4-4-4-4-|X3  |
A|-2-2-2--2-2-2-2--2-2-2-2--2-2-2-2--6-6-6--6-6-6-6--4-4-4--4-4-4-4-|    |R
D|-2-2-2--2-2-2-2--2-2-2-2--2-2-2-2--6-6-6--6-6-6-6--4-4-4--4-4-4-4-|    |E
   * *    * * *    * * *    * * *    * *    * * *    * *    * * *        |F
                                                                         |R
Guitar 2                                                                 |A
E|--------------------------------------------|                          |I
B|--------------------------------5-4---7-5-4-|                          |N
G|---4-3-6---3-4-3------4-3-6---3-----4-------|                          |
D|-2-------4-------4--2-------4---------------|X2                        |
A|--------------------------------------------|                          |
D|--------------------------------------------|                          |
  tttttttttttttttttttttttttttttttttttttttttttt                           |

GUITAR 1 AND 2                                                           |
E|-----------------------------------------------|                       |
B|-----------------------------------------------|                       |
G|-----------------------------------------------|                       |B
D|-1---2p1-1-1-2p1-1--2-2----2p1-1-1-2p1-1-6-6---|X2                     |R
A|-1X6-2p1-1-1-2p1-1--2-2X6--2p1-1-1-2p1-1-6-6X6-|                       |E
D|-1---2p1-1-1-2p1-1--2-2----2p1-1-1-2p1-1-6-6---|                       |A
   *       * *     *    *        * *     *   *                           |K
                                                                         |D
guitar 1 and 2                                                           |O
E|---------------------------------|                                     |W
B|---------------------------------|                                     |N
G|---------------------------------|                                     |
D|-2-2--2-2--2---2---2---6----4----|X2                                   |2
A|-2-2--2-2--2X6-2X4-2X6-6X16-4X16-|                                     |
D|-2-2--2-2--2---2---2---6----4----|                                     |
   * *  * *  *   *   *   *    *                                          |

Guitar 1
E|------------------------------------------------------------------|    |
B|------------------------------------------------------------------|    |
G|------------------------------------------------------------------|    |
D|-2-2-2--2-2-2-2--2-2-2-2--2-2-2-2--6-6-6--6-6-6-6--4-4-4--4-4-4-4-|X3  |
A|-2-2-2--2-2-2-2--2-2-2-2--2-2-2-2--6-6-6--6-6-6-6--4-4-4--4-4-4-4-|    |R
D|-2-2-2--2-2-2-2--2-2-2-2--2-2-2-2--6-6-6--6-6-6-6--4-4-4--4-4-4-4-|    |E
   * *    * * *    * * *    * * *    * *    * * *    * *    * * *        |F
                                                                         |R
Guitar 2                                                                 |A
E|--------------------------------------------|                          |I
B|--------------------------------5-4---7-5-4-|                          |N
G|---4-3-6---3-4-3------4-3-6---3-----4-------|                          |
D|-2-------4-------4--2-------4---------------|X2                        |
A|--------------------------------------------|                          |
D|--------------------------------------------|                          |
  tttttttttttttttttttttttttttttttttttttttttttt            

     GUITAR 1 AND 2
E|---------------------|                                                 |B
B|---------------------|                                                 |R
G|---------------------|                                                 |I
D|-2p1-2~---2p1-6~-----|X4                                               |D
A|-2p1-2~---2p1-6~-----|                                                 |G
D|-2p1-2~---2p1-6~-----|                                                 |E
                                                                         |
                                                                         |2

Guitar 1 plays this part  then plays this until the end.                 |F
E|----------------------| |-----------------------------|                |I
B|----------------------| |-----------------------------|                |N
G|----------------------| |-----------------------------|                |A
D|-2-2-2-2-2~---2p1--6~-| |--2p1--2~---2p1--6~----------|                |L
A|-2-2-2-2-2~---2p1--6~-| |--2p1--2~---2p1--6~----------|                |
D|-2-2-2-2-2~---2p1--6~-| |--2p1--2~---2p1--6~----------|                |B
   * * * *                                                               |R
                                                                         |E
Guitar 2 plays this until the end                                        |A
E|------------------------------------------------|                      |K
B|------------------------------------------------|                      |D
G|------------------------------------------------|                      |O
D|-2-2-2-2-2--2--2-2--2p1--6-6-6-6-6-6--6--6-6----|                      |W
A|-2-2-2-2-2--2--2-2--2p1--6-6-6-6-6-6--6--6-6----|                      |N
D|-2-2-2-2-2--2--2-2--2p1--6-6-6-6-6-6--6--6-6----|                      |
   * * * * *  *  * *       * * * * * *  *  * *                           |A
E|--------------------------------------------------|                    |N
B|--------------------------------------------------|                    |D
G|--------------------------------------------------|                    |
D|-2p1--2-2-2-2-2--2--2-2--2p1--6-6-6-6-6-6--6--6-6-|                    |E
A|-2p1--2-2-2-2-2--2--2-2--2p1--6-6-6-6-6-6--6--6-6-|                    |N
D|-2p1--2-2-2-2-2--2--2-2--2p1--6-6-6-6-6-6--6--6-6-|                    |D
        * * * * *  *  * *       * * * * * *  *  * *                      |I
                                                                         |N
E|---------------------------------------------|                         |G
B|---------------------------------------------|                         |
G|---------------------------------------------|                         |
D|-2-1-2-2-2--2--2-2--2-1-6-6-6--6--6-6--------|X2 second time play      |
A|-2-1-2-2-2--2--2-2--2-1-6-6-6--6--6-6--------|      ending             |
D|-2-1-2-2-2--2--2-2--2-1-6-6-6--6--6-6--------|                         |
   * * * * *  *  * *  * * * * *  *  * *                                  |

 GUITAR 1 and GUITAR 2 both end on this                                  |
E|------------------|                                                    |
B|------------------|                                                    |E
G|------------------|                                                    |N
D|-6-6-6-6-6-6------|                                                    |D
A|-6-6-6-6-6-6------|                                                    |
D|-6-6-6-6-6-6------|                                                    | 
   * * * * * *                                                           |

If you have any questions email is hammerdogg20@hotmail.com
AOL SN is hammerdogg20
ill be putting me playing this on youtube once i record it

            
            
Suggest correction
Creating personal tab
Creating personal tab
You can edit any tab online and save it as your Personal.

You can edit, replace or remove any tab part or add personal notes – all changes will be seen only by you.

Personal tabs can be accessed anytime from any device, even offline.
Learn more »
Give kudos to tab author, rate the tab!
1 2 3 4 5
comments
print report bad tab
3 comments total.
0 reply
MetalorDIE 10 May 24, 2007 07:54 AM

dude, insane! ive been waiting soo long to see a Burn in Silence tab and i never thought id see one. I couldnt click fast enough to see it and wow man u nailed it like dead on! thanks a bunch! Think ull do Angelmaker next? ;-) haha, good job man!

0 reply
Megathing 10 Jul 17, 2007 11:56 AM

Wow, a Burn in Silence tab! :O \m/(>.

0 reply
killer_penguin 10 Aug 10, 2011 04:17 PM

Seriously.. How can this still be the only Burn in Silence tab?

guest
You may want to rate the tab now too:
select rating
Wanna post a correction for this tab? Suggest correction