Oops, an error
Loading. Please wait.

Perfect tab

version 3
version 3

Whole song

1,976 views 1 this week
no commentswrite comment
1 2 3 4 5
2 more votes to show rating
add to favorites
×
Save as Personal and add changes to this tab that will be seen only by you. Learn more ›
×
You can save this tab as Personal to edit and correct it or add notes. All changes will be seen only by you. Learn more »
launch autoscroll
font size
0
reset
how to read this tab
guitar tuner
edit
Autoscroll
slow
fast
+/-
esc
set tempo
stop
Perfect
by Burn Season

Originally
tabbed by
          R0zz

Fixed up and made correct by Angrypoonani

TUNING Drop C# (Drop-d a half-step down


-intro- 2x
[acoustic]
e|----3-------2----|
B|----3-------3----|
G|----0-------2----|
D|----2-------0----|
A|----2-------0----|
D|----2-------0----|



-verse- 3x
[acoustic]
e|----3---3---2----|
B|----3---3---3----|
G|----0---2---2----|
D|----2---0---0----|
A|----2---0---0----|
D|----2---0---0----|



-chorus- 2x
[acoustic]
e|-----------------------------|
B|-----------------------------|
G|----5------7-----------------|
D|----5------7------2-----5~~--|
A|----3------5------2-----5~~--|
D|------------------2-----5~~--|
                          (second time through hold)



-lead part-
[electric]
Distortion and Wah
e|------------------------------------------|
B|------------------------------------------|
G|------------------------------------------|
D|-----------5----------------5\4-----------|
A|----5-5/7-----7-------2/5-7------5--------|
D|-2/5--------------2/5---------------------|
              

-verse 2- 5x
[acoustic]
e|----3---3---2----|
B|----3---3---3----|         play during lead
G|----0---2---2----|         and continue with verse2
D|----2---0---0----|
A|----2---0---0----|
D|----2---0---0----|


There are some fills in the 2nd verse with some chorus or flanger
This is what they sound like to me:
Fill 1:                Fill 2:
...the unexpected... ..you feelin alright
e|---------7~---------|---7~-------------------|
B|------------7-8-7---|-----7-8-10~~-----------|
G|--------------------|------------------------|
D|--------------------|------------------------|
A|--------------------|------------------------|
D|--------------------|------------------------|



-chorus- 3x
[acoustic]
e|-----------------------------|
B|-----------------------------|
G|----5------7-----------------|
D|----5------7------2-----5----|
A|----3------5------2-----5----|
D|------------------2-----5----|
There are some piano fills in the Chorus
but they don't add that much flavor so
I didn't waste my time


-lead 2-
[Electric]
Distortion and Wah
e|--------------------------------------------------------------------------------|
B|--------------------------------------------------------------------------------|
G|-----------------------------/12-9---9~~~---------------------------------------|
D|-------5---------------5-4~~------/12--------------------5----------------------|
A|---5h7---7~------2/5-7-------------------7~~~------2/5-7---7--------------------| 
D|-5-----------2/5-------------------------------2/5------------------------------|


-outro- 5x
[piano]***
***sounds good on acoustic though

There are several Different to play this but
sadly they all happen to be a bit difficult…
Just practice whichever way feels comfortable
and you’ll get it… or get keys

This way is by far the easiest and sounds the best
e|---------------------------2------2----------|
B|---------------------------3------3----------|
G|------11--------11-12---------------12-11-9--|
D|------12--------12---------------------------|
A|---10--------12----------2------2------------|
D|10--------12-----------2------2--------------|


That is about it

Have fun it’s a great song


            
            
Suggest correction
Creating personal tab
Creating personal tab
You can edit any tab online and save it as your Personal.

You can edit, replace or remove any tab part or add personal notes – all changes will be seen only by you.

Personal tabs can be accessed anytime from any device, even offline.
Learn more »
Give kudos to tab author, rate the tab!
1 2 3 4 5
comments
print report bad tab
guest
Wanna post a correction for this tab? Suggest correction