Oops, an error
Loading. Please wait.

Evil Death Inc tab

version 1
version 1

Whole song

Interactive

269 views 1 this week
no commentswrite comment
1 2 3 4 5
3 more votes to show rating
add to favorites
×
Save as Personal and add changes to this tab that will be seen only by you. Learn more ›
×
You can save this tab as Personal to edit and correct it or add notes. All changes will be seen only by you. Learn more »
launch autoscroll
font size
0
reset
how to read this tab
guitar tuner
edit
Autoscroll
slow
fast
+/-
esc
set tempo
stop
Author
Difficulty
                                EVIL DEATH, INC.
                         As recorded by Burn The Priest
                       (From the 1998 EP SEVENS AND MORE)

Music by Lamb Of God
Arranged by Lamb Of God
Transcribed by Simon Montague-Bassett

Gtr I (E A D G B E) - 'Rhythm 1'
Gtr II (E A D G B E) - 'Rhythm 2'
Gtr III (D A D G B E) - 'Lead 1'
Gtr IV (E A D G B E) - 'Lead 2'

    Q=162
   4/4
    Gtrs I, II
    PM----------|   PM---------------------
    E S S E E E E E E   E S S E E E E E E
||--------------------|-------------------|
||o-------------------|-------------------|
||--------------------|-------------------|
||--------------------|-------------------|
||o-2-2-2-2-2---2---2-|-2-2-2-2-2---2---2-|
||--0-0-0-0-0---0---0-|-0-0-0-0-0---0---0-|


 -----------------------------------|
  E S S E E E E E E   E S S E E E E E E  4x
|-------------------|--------------------||
|-------------------|-------------------o||
|-------------------|--------------------||
|-------------------|--------------------||
|-2-2-2-2-2---2---2-|-2-2-2-2-2---2-2---o||
|-0-0-0-0-0---0---0-|-0-0-0-0-0---0-0----||


    PM----------|   PM---------------------
    E S S E E E E E E   E S S E E E E E E
||--------------------|-------------------|
||o-------------------|-------------------|
||--------------------|-------------------|
||--------------------|-------------------|
||o-2-2-2-2-2---2---2-|-2-2-2-2-2---2---2-|
||--0-0-0-0-0---0---0-|-0-0-0-0-0---0---0-|
|
|   Gtr III
|   W                   W
||--------------------|-------------------|
||o-------------------|-------------------|
||--------------------|-------------------|
||--------------------|-------------------|
||o-------------------|-------------------|
||--3-----------------|-0-----------------|


 -------------------------------------|
  E S S E E E E E E    E  S S E E E E E E   4x
|-------------------|-----------------------||
|-------------------|----------------------o||
|-------------------|-----------------------||
|-------------------|-----------------------||
|-2-2-2-2-2---2---2-|--2--2-2-2-2---2-2----o||
|-0-0-0-0-0---0---0-|--0--0-0-0-0---0-0-----||
|
| W                   +W                    4x
|-------------------|-----------------------||
|-------------------|----------------------o||
|-------------------|-----------------------||
|-------------------|-----------------------||
|-------------------|----------------------o||
|-2-----------------|-(2)-------------------||


  Gtrs I, II
  PM------------|     PM|       PM------------|     PM|
  S S S S S S S S  E  E E  E    S S S S S S S S  E  E E  E
|-----------------------------|-----------------------------|
|-----------------------------|-----------------------------|
|-----------------------------|-----------------------------|
|-----------------------------|-----------------------------|
|-----------------------------|-----------------------------|
|-0-0-0-0-0-0-0-0-<3>-0-0-<3>-|-0-0-0-0-0-0-0-0-<3>-0-0-<3>-|


  PM------------|     PM|       PM--------------------|
  S S S S S S S S  E  E E  E    S S S S S S S S S S S S  Q
|-----------------------------|-------------------------------|
|-----------------------------|-------------------------------|
|-----------------------------|-------------------------------|
|-----------------------------|-------------------------------|
|-----------------------------|-------------------------------|
|-0-0-0-0-0-0-0-0-<3>-0-0-<3>-|-0-0-0-0-0-0-0-0-0-0-0-0-<3>---|


           PM----|     PM|       PM------------|     PM|
     +Q    S S S S  E  E E  E    S S S S S S S S  E  E E  E
||-----------------------------|-----------------------------|
||o----------------------------|-----------------------------|
||-----------------------------|-----------------------------|
||-----------------------------|-----------------------------|
||o----------------------------|-----------------------------|
||--(<3>)--0-0-0-0-<3>-0-0-<3>-|-0-0-0-0-0-0-0-0-<3>-0-0-<3>-|


  PM------------|     PM|       PM--------------------|
  S S S S S S S S  E  E E  E    S S S S S S S S S S S S  Q      3x
|-----------------------------|---------------------------------||
|-----------------------------|--------------------------------o||
|-----------------------------|---------------------------------||
|-----------------------------|---------------------------------||
|-----------------------------|--------------------------------o||
|-0-0-0-0-0-0-0-0-<3>-0-0-<3>-|-0-0-0-0-0-0-0-0-0-0-0-0-<3>-----||


  Gtr I
                                PM------------------------
   +W                           E  S S E E E S S S S S S
|----------------------------|---------------------------|
|----------------------------|---------------------------|
|----------------------------|---------------------------|
|----------------------------|---------------------------|
|----------------------------|--2--2-2-2-2-2-2-2-2-2-2-2-|
|-(<3>)----------------------|--0--0-0-0-0-0-0-0-0-0-0-0-|
|
| Gtr II
|   PM----------------------------------------------------
|   S    S E E S S E E S S E    E  S S E E E S S S S S S
|----------------------------|---------------------------|
|----------------------------|---------------------------|
|----------------------------|---------------------------|
|----------------------------|---------------------------|
|---2----2-2-2-2-2-2-2-2-2-2-|--2--2-2-2-2-2-2-2-2-2-2-2-|
|---0----0-0-0-0-0-0-0-0-0-0-|--0--0-0-0-0-0-0-0-0-0-0-0-|
|
| Gtr III
|   W                          +W
|----------------------------|---------------------------|
|----------------------------|---------------------------|
|----------------------------|---------------------------|
|----------------------------|---------------------------|
|----------------------------|---------------------------|
|---8b9======================|=(8)-----------------------|


 --------------------------------------|
   S  S E E S S E E S S E    E   S S E E E Q.
|-------------------------|----------------------|
|-------------------------|----------------------|
|-------------------------|----------------------|
|-------------------------|----------------------|
|--2--2-2-2-2-2-2-2-2-2-2-|--2---2-2-2-2-2-------|
|--0--0-0-0-0-0-0-0-0-0-0-|--0---0-0-0-0-0-------|
|
|--------------------------------------|
|  S  S E E S S E E S S E    E   S S E E E Q.
|-------------------------|----------------------|
|-------------------------|----------------------|
|-------------------------|----------------------|
|-------------------------|----------------------|
|--2--2-2-2-2-2-2-2-2-2-2-|--2---2-2-2-2-2-------|
|--0--0-0-0-0-0-0-0-0-0-0-|--0---0-0-0-0-0-------|
|
|                            |
| +W                        +W
|-------------------------|----------------------|
|-------------------------|----------------------|
|-------------------------|----------------------|
|-------------------------|----------------------|
|-------------------------|----------------------|
|-(8)---------------------|-(8)r-----------------|


  Gtrs I, II
   PM--------------------------------------------------
   S S E E S S E E S S E     E  S S E E E S S S S S S
|------------------------|----------------------------|
|------------------------|----------------------------|
|------------------------|----------------------------|
|------------------------|----------------------------|
|--2-2-2-2-2-2-2-2-2-2-2-|---2--2-2-2-2-2-2-2-2-2-2-2-|
|--0-0-0-0-0-0-0-0-0-0-0-|---0--0-0-0-0-0-0-0-0-0-0-0-|
|
| Gtr III
|  W                        +W
|------------------------|----------------------------|
|------------------------|----------------------------|
|------------------------|----------------------------|
|------------------------|----------------------------|
|------------------------|----------------------------|
|-11---------------------|-(11)-----------------------|


 ---------------------------------|
  S S E E S S E E S S E   E S S E E E Q.
|-----------------------|-------------------|
|-----------------------|-------------------|
|-----------------------|-------------------|
|-----------------------|-------------------|
|-2-2-2-2-2-2-2-2-2-2-2-|-2-2-2-2-2-2-------|
|-0-0-0-0-0-0-0-0-0-0-0-|-0-0-0-0-0-0-------|
|
| W                       W
|-----------------------|-------------------|
|-----------------------|-------------------|
|-----------------------|-------------------|
|-----------------------|-------------------|
|-----------------------|-------------------|
|-5---------------------|-2-----------------|


  PM----------------------------------------------------
  S    S E E S S E E S S E    E  S S E E E S S S S S S
|--------------------------|---------------------------|
|--------------------------|---------------------------|
|--------------------------|---------------------------|
|--------------------------|---------------------------|
|-2----2-2-2-2-2-2-2-2-2-2-|--2--2-2-2-2-2-2-2-2-2-2-2-|
|-0----0-0-0-0-0-0-0-0-0-0-|--0--0-0-0-0-0-0-0-0-0-0-0-|
|
| W                          +W
|--------------------------|---------------------------|
|--------------------------|---------------------------|
|--------------------------|---------------------------|
|--------------------------|---------------------------|
|--------------------------|---------------------------|
|-8b9======================|=(8)-----------------------|


 --------------------------------------|
   S  S E E S S E E S S E    E   S S E E E Q.
|-------------------------|----------------------|
|-------------------------|----------------------|
|-------------------------|----------------------|
|-------------------------|----------------------|
|--2--2-2-2-2-2-2-2-2-2-2-|--2---2-2-2-2-2-------|
|--0--0-0-0-0-0-0-0-0-0-0-|--0---0-0-0-0-0-------|
|
|                            |
| +W                        +W
|-------------------------|----------------------|
|-------------------------|----------------------|
|-------------------------|----------------------|
|-------------------------|----------------------|
|-------------------------|----------------------|
|-(8)---------------------|-(8)r-----------------|


   PM--------------------------------------------------
   S S E E S S E E S S E     E  S S E E E S S S S S S
|------------------------|----------------------------|
|------------------------|----------------------------|
|------------------------|----------------------------|
|------------------------|----------------------------|
|--2-2-2-2-2-2-2-2-2-2-2-|---2--2-2-2-2-2-2-2-2-2-2-2-|
|--0-0-0-0-0-0-0-0-0-0-0-|---0--0-0-0-0-0-0-0-0-0-0-0-|
|
|  W                        +W
|------------------------|----------------------------|
|------------------------|----------------------------|
|------------------------|----------------------------|
|------------------------|----------------------------|
|------------------------|----------------------------|
|-11---------------------|-(11)-----------------------|


 ---------------------------------|
  S S E E S S E E S S E   E S S E E    E  Q.
|-----------------------|----------------------|
|-----------------------|----------------------|
|-----------------------|-------------10-------|
|-----------------------|-------------10-------|
|-2-2-2-2-2-2-2-2-2-2-2-|-2-2-2-2-2----8-------|
|-0-0-0-0-0-0-0-0-0-0-0-|-0-0-0-0-0------------|
|
| W                       H         a  H
|-----------------------|----------------------|
|-----------------------|----------------------|
|-----------------------|----------------------|
|-----------------------|----------------------|
|-----------------------|----------------------|
|-5---------------------|-2---------2s15\------|


    PM---------------|        PM--------------------------------|
                                                                   |-------3--------|
    S  S S  S S  S S  S  E    S  S S  S S  S   S  S S  S S  S S  S Q      Q         Q
||-------------------------------------------|---------------------------------------------|
||o------------------------------------------|---------------------------------------------|
||----------------------10-------------------|---------------------------------------------|
||----------------------10-------------------|---------------------5------4---------3------|
||o----------------------8-------------------|---------------------5------4---------3------|
||--0--0-0--0-0--0-0--0-------0--0-0--0-0--0-|-0--0-0--0-0--0-0--0-3------2---------1------|
|
|      T    T    T    T     T    T    T    T      T    T    T    T    T      T    T      T
|   S  S S  S S  S S  S  S  S S  S S  S S  S   S  S S  S S  S S  S S  S S    S S  S   S  S
||-------------------------------------------|---------------------------------------------|
||o------------------------------------------|---------------------------------------------|
||--2h14p2h14p2h14p2h14p=4h16p4h16p4h16p4h16-|-2h14p2h14p2h14p2h14p4h16p4h==16p4h16p==4h16-|
||-------------------------------------------|---------------------------------------------|
||o------------------------------------------|---------------------------------------------|
||-------------------------------------------|---------------------------------------------|


  PM---------------|        PM--------------------------------|        PM----------|
  S  S S  S S  S S  S  E    S  S S  S S  S   S  S S  S S  S S  S  E    S  S S  S S  S   4x
|------------------------------------------|--------------------------------------------||
|------------------------------------------|-------------------------------------------o||
|---------------------10-------------------|---------------------10---------------------||
|---------------------10-------------------|---------------------10---------------------||
|----------------------8-------------------|----------------------8--------------------o||
|-0--0-0--0-0--0-0--0-------0--0-0--0-0--0-|-0--0-0--0-0--0-0--0-------0--0-0--0-0--0---||
|
|    T    T    T    T     T    T    T    T      T    T    T    T     T    T    T    T
| S  S S  S S  S S  S  S  S S  S S  S S  S   S  S S  S S  S S  S  S  S S  S S  S S  S   4x
|------------------------------------------|--------------------------------------------||
|------------------------------------------|-------------------------------------------o||
|-2h14p2h14p2h14p2h14p=4h16p4h16p4h16p4h16-|-2h14p2h14p2h14p2h14p=4h16p4h16p4h16p4h16---||
|------------------------------------------|--------------------------------------------||
|------------------------------------------|-------------------------------------------o||
|------------------------------------------|--------------------------------------------||


  PM---------------------------------------------------------------|
  S S S S S E. H       S  S S S S S S S S S S S S S S S   S Q  S S S H
|-------------------|-----------------------------------|-----------------|
|-------------------|-----------------------------------|-----------------|
|-------------------|-----------------------------------|-----------------|
|-------------------|-----------------------------------|-----------------|
|-2-2---2-2---------|--2--2---2-2---2-2---2-2---2-2---2-|-2------2-2-4----|
|-0-0---0-0---------|--0--0---0-0---0-0---0-0---0-0---0-|-0------0-0-3----|
|
| W                   +W                                  W
|-------------------|-----------------------------------|-----------------|
|-------------------|-----------------------------------|-----------------|
|-4-----------------|-(4)-------------------------------|-----------------|
|-------------------|-----------------------------------|-2---------------|
|-------------------|-----------------------------------|-----------------|
|-------------------|-----------------------------------|-----------------|


      PM------------------------|     PM|                   PM|
  +E  S S S S S S S S S S S S S S   S S S   S H.         E  S S H.
|---------------------------------|-------------------|---------------|
|---------------------------------|-------------------|---------------|
|---------------------------------|-------------------|---------------|
|---------------------------------|-------------------|---------------|
|-(4)-2-2---2-2---2-2---2-2---2-2-|---2-2-------------|-----2-2-4-----|
|-(3)-0-0---0-0---0-0---0-0---0-0-|---0-0-------------|-----0-0-3-----|
|
| +H.                     E   E     E   H..             +W
|---------------------------------|-------------------|---------------|
|---------------------------------|-------------------|---------------|
|---------------------------------|-------------------|---------------|
|-(2)---------------------0h==2s==|=4s==2-------------|-(2)-----------|
|---------------------------------|-------------------|---------------|
|---------------------------------|-------------------|---------------|


  PM---------------------------------------------------------------|
  S S S S S E. H       S  S S S S S S S S S S S S S S S   S Q  S S S H
|-------------------|-----------------------------------|-----------------|
|-------------------|-----------------------------------|-----------------|
|-------------------|-----------------------------------|-----------------|
|-------------------|-----------------------------------|-----------------|
|-2-2---2-2---------|--2--2---2-2---2-2---2-2---2-2---2-|-2------2-2-4----|
|-0-0---0-0---------|--0--0---0-0---0-0---0-0---0-0---0-|-0------0-0-3----|
|
| W                   +W                                  W
|-------------------|-----------------------------------|-----------------|
|-------------------|-----------------------------------|-----------------|
|-------------------|-----------------------------------|-4---------------|
|-------------------|-----------------------------------|-----------------|
|-2-----------------|-(2)-------------------------------|-----------------|
|-------------------|-----------------------------------|-----------------|


      PM------------------------|     PM|                 PM|
  +E  S S S S S S S S S S S S S S   S S S S H.         E  S S H.
|---------------------------------|-----------------|-----------------------|
|---------------------------------|-----------------|-----------------------|
|---------------------------------|-----------------|-----------------------|
|---------------------------------|-----------------|-----------------------|
|-(4)-2-2---2-2---2-2---2-2---2-2-|---2-2-----------|-----2-2-4-------------|
|-(3)-0-0---0-0---0-0---0-0---0-0-|---0-0-----------|-----0-0-3-------------|
|
| +W                                W                 +H.           E E
|---------------------------------|-----------------|-----------------------|
|---------------------------------|-----------------|-----------------------|
|-(4)-----------------------------|-----------------|-----------------------|
|---------------------------------|-2---------------|-(2)-----------0h2s====|
|---------------------------------|-----------------|-----------------------|
|---------------------------------|-----------------|-----------------------|


  PM-----------------------------------------------------------------|
  S S S   S S E. H       S  S S S S S S S S S S S S S S S   S Q  S S S H
|---------------------|-----------------------------------|-----------------|
|---------------------|-----------------------------------|-----------------|
|---------------------|-----------------------------------|-----------------|
|---------------------|-----------------------------------|-----------------|
|-2-2-----2-2---------|--2--2---2-2---2-2---2-2---2-2---2-|-2------2-2-4----|
|-0-0-----0-0---------|--0--0---0-0---0-0---0-0---0-0---0-|-0------0-0-3----|
|
| E   H..               +W                                  W
|---------------------|-----------------------------------|-----------------|
|---------------------|-----------------------------------|-----------------|
|---------------------|-----------------------------------|-----------------|
|-4s==2---------------|-(2)-------------------------------|-----------------|
|---------------------|-----------------------------------|-2---------------|
|---------------------|-----------------------------------|-----------------|


      PM------------------------|       PM|                 PM|
  +E  S S S S S S S S S S S S S S    S  S S S H.         E  S S H.
|---------------------------------|-------------------|---------------|
|---------------------------------|-------------------|---------------|
|---------------------------------|-------------------|---------------|
|---------------------------------|-------------------|---------------|
|-(4)-2-2---2-2---2-2---2-2---2-2-|-----2-2-----------|-----2-2-4-----|
|-(3)-0-0---0-0---0-0---0-0---0-0-|-----0-0-----------|-----0-0-3-----|
|
| +W                                +W                  +W
|---------------------------------|-------------------|---------------|
|---------------------------------|-------------------|---------------|
|---------------------------------|-------------------|---------------|
|---------------------------------|-------------------|---------------|
|-(2)-----------------------------|-(2)---------------|-(2)-----------|
|---------------------------------|-------------------|---------------|


  PM----------------------------------------------------------------------|
  S S S S S E. H       S  S S S S S S S S S S S S S S S   S Q     S  S    S  H
|-------------------|-----------------------------------|--------------------------|
|-------------------|-----------------------------------|--------------------------|
|-------------------|-----------------------------------|--------------------------|
|-------------------|-----------------------------------|--------------------------|
|-2-2---2-2---------|--2--2---2-2---2-2---2-2---2-2---2-|-2----------2----2--4-----|
|-0-0---0-0---------|--0--0---0-0---0-0---0-0---0-0---0-|-0----------0----0--3-----|
|
| W                   +W                                  Q.        +E      +H
|-------------------|-----------------------------------|--------------------------|
|-------------------|-----------------------------------|--------------------------|
|-4-----------------|-(4)-------------------------------|--------------------------|
|-------------------|-----------------------------------|-4---------(4)b5r==(4)----|
|-------------------|-----------------------------------|--------------------------|
|-------------------|-----------------------------------|--------------------------|
|
| Gtr IV
| H            H      +H.                       E   E     E   H..
|-------------------|-----------------------------------|--------------------------|
|-------------------|-----------------------------------|--------------------------|
|-------------------|-----------------------------------|--------------------------|
|--------------2----|-(2)-----------------------0h==2s==|=4s==2--------------------|
|-------------------|-----------------------------------|--------------------------|
|-------------------|-----------------------------------|--------------------------|


      PM------------------------|      PM|                     PM|
  +E  S S S S S S S S S S S S S S    S S S   S H.           E  S S H.
|---------------------------------|----------------------|----------------------|
|---------------------------------|----------------------|----------------------|
|---------------------------------|----------------------|----------------------|
|---------------------------------|----------------------|----------------------|
|-(4)-2-2---2-2---2-2---2-2---2-2-|----2-2---------------|-----2-2-4------------|
|-(3)-0-0---0-0---0-0---0-0---0-0-|----0-0---------------|-----0-0-3------------|
|
| +H.                     E   E      Q.           E H      +H.           E E
|---------------------------------|----------------------|----------------------|
|---------------------------------|----------------------|----------------------|
|---------------------------------|----------------------|----------------------|
|-(4)---------------------4---5---|-/7------------5-4----|-(4)-----------5-4----|
|---------------------------------|----------------------|----------------------|
|---------------------------------|----------------------|----------------------|
|
| +H.                     E   E      E   H..               +W
|---------------------------------|----------------------|----------------------|
|---------------------------------|----------------------|----------------------|
|---------------------------------|----------------------|----------------------|
|-(2)---------------------0h==2s==|==4s==2---------------|-(2)------------------|
|---------------------------------|----------------------|----------------------|
|---------------------------------|----------------------|----------------------|


  PM----------------------------------------------------------------|
  S S S S S  E. H       S  S S S S S S S S S S S S S S S   S Q  S S S H
|--------------------|-----------------------------------|-----------------|
|--------------------|-----------------------------------|-----------------|
|--------------------|-----------------------------------|-----------------|
|--------------------|-----------------------------------|-----------------|
|-2-2---2-2----------|--2--2---2-2---2-2---2-2---2-2---2-|-2------2-2-4----|
|-0-0---0-0----------|--0--0---0-0---0-0---0-0---0-0---0-|-0------0-0-3----|
|
| E   E   H.           +W                                  W
|--------------------|-----------------------------------|-----------------|
|--------------------|-----------------------------------|-----------------|
|--------------------|-----------------------------------|-4---------------|
|-2h==4p==2----------|-(2)-------------------------------|-----------------|
|--------------------|-----------------------------------|-----------------|
|--------------------|-----------------------------------|-----------------|
|
| W                    +W                                  H          H
|--------------------|-----------------------------------|-----------------|
|--------------------|-----------------------------------|-----------------|
|--------------------|-----------------------------------|-----------------|
|--------------------|-----------------------------------|------------5----|
|-2------------------|-(2)-------------------------------|-----------------|
|--------------------|-----------------------------------|-----------------|


      PM------------------------|     PM|                   PM|
  +E  S S S S S S S S S S S S S S   S S S S H.           E  S S H.
|---------------------------------|-----------------|-------------------------|
|---------------------------------|-----------------|-------------------------|
|---------------------------------|-----------------|-------------------------|
|---------------------------------|-----------------|-------------------------|
|-(4)-2-2---2-2---2-2---2-2---2-2-|---2-2-----------|-------2-2-4-------------|
|-(3)-0-0---0-0---0-0---0-0---0-0-|---0-0-----------|-------0-0-3-------------|
|
| +W                                W                   +H.           E E
|---------------------------------|-----------------|-------------------------|
|---------------------------------|-----------------|-------------------------|
|-(4)-----------------------------|-----------------|-------------------------|
|---------------------------------|-2---------------|---(2)-----------0h2s====|
|---------------------------------|-----------------|-------------------------|
|---------------------------------|-----------------|-------------------------|
|
| +W                                W                 a  W
|---------------------------------|-----------------|-------------------------|
|---------------------------------|-----------------|-------------------------|
|---------------------------------|-----------------|-------------------------|
|-(5)-----------------------------|-4---------------|-4s=7--------------------|
|---------------------------------|-----------------|-------------------------|
|---------------------------------|-----------------|-------------------------|


  PM-----------------------------------------------------------------|
  S S S   S S E. H       S  S S S S S S S S S S S S S S S   S Q  S S S H
|---------------------|-----------------------------------|-----------------|
|---------------------|-----------------------------------|-----------------|
|---------------------|-----------------------------------|-----------------|
|---------------------|-----------------------------------|-----------------|
|-2-2-----2-2---------|--2--2---2-2---2-2---2-2---2-2---2-|-2------2-2-4----|
|-0-0-----0-0---------|--0--0---0-0---0-0---0-0---0-0---0-|-0------0-0-3----|
|
| E   H..               +H.                       E   E     W
|---------------------|-----------------------------------|-----------------|
|---------------------|-----------------------------------|-----------------|
|---------------------|-----------------------------------|-----------------|
|-4s==2---------------|-(2)-----------------------0h==2s==|=4---------------|
|---------------------|-----------------------------------|-----------------|
|---------------------|-----------------------------------|-----------------|
|
| E   H..               +W                                  W
|---------------------|-----------------------------------|-----------------|
|---------------------|-----------------------------------|-----------------|
|---------------------|-----------------------------------|-----------------|
|-4s==2---------------|-(2)-------------------------------|-----------------|
|---------------------|-----------------------------------|-2---------------|
|---------------------|-----------------------------------|-----------------|


      PM------------------------|       PM|                 PM|
  +E  S S S S S S S S S S S S S S    S  S S S H.         E  S S H.
|---------------------------------|-------------------|---------------|
|---------------------------------|-------------------|---------------|
|---------------------------------|-------------------|---------------|
|---------------------------------|-------------------|---------------|
|-(4)-2-2---2-2---2-2---2-2---2-2-|-----2-2-----------|-----2-2-4-----|
|-(3)-0-0---0-0---0-0---0-0---0-0-|-----0-0-----------|-----0-0-3-----|
|
|  E  E   E   E   E   E   E   E     +W                  +W
|---------------------------------|-------------------|---------------|
|---------------------------------|-------------------|---------------|
|---------------------------------|-------------------|---------------|
|--5--4---2---4---2---1---2---1---|-(1)---------------|-(1)-----------|
|---------------------------------|-------------------|---------------|
|---------------------------------|-------------------|---------------|
|
| +W                                +W                  +W
|---------------------------------|-------------------|---------------|
|---------------------------------|-------------------|---------------|
|---------------------------------|-------------------|---------------|
|---------------------------------|-------------------|---------------|
|-(2)-----------------------------|-(2)---------------|-(2)-----------|
|---------------------------------|-------------------|---------------|


  PM-------------------------------------------------
  S S E E S S E E S S E    E  S S E E E S S S S S S
|-----------------------|---------------------------|
|-----------------------|---------------------------|
|-----------------------|---------------------------|
|-----------------------|---------------------------|
|-----------------------|---------------------------|
|-0-0-0-0-0-0-0-0-0-0-0-|--0--0-0-0-0-0-0-0-0-0-0-0-|
|
| W                       +W
|-----------------------|---------------------------|
|-----------------------|---------------------------|
|-----------------------|---------------------------|
|-2---------------------|-(2)-----------------------|
|-----------------------|---------------------------|
|-----------------------|---------------------------|


 -------------------------------------|
   S  S E E S S E E S S E    E  S S E E E Q.
|-------------------------|---------------------|
|-------------------------|---------------------|
|-------------------------|---------------------|
|-------------------------|---------------------|
|-------------------------|-------------2-------|
|--0--0-0-0-0-0-0-0-0-0-0-|--0--0-0-0-0-0-------|
|
| +W                        +W
|-------------------------|---------------------|
|-------------------------|---------------------|
|-------------------------|---------------------|
|-(2)---------------------|-(2)-----------------|
|-------------------------|---------------------|
|-------------------------|---------------------|


    PM-----------------------------------------------
    S S E E S S E E S S E   E S S E E E S S S S S S
||------------------------|-------------------------|
||o-----------------------|-------------------------|
||------------------------|-------------------------|
||------------------------|-------------------------|
||o-----------------------|-------------------------|
||--0-0-0-0-0-0-0-0-0-0-0-|-0-0-0-0-0-0-0-0-0-0-0-0-|


 ---------------------------------|
  S S E E S S E E S S E   E S S E E E Q.    3x
|-----------------------|-------------------||
|-----------------------|------------------o||
|-----------------------|-------------------||
|-----------------------|-------------------||
|-----------------------|-----------2------o||
|-0-0-0-0-0-0-0-0-0-0-0-|-0-0-0-0-0-0-------||


    PM---------------|        PM--------------------------------|
                                                                   |-------3--------|
    S  S S  S S  S S  S  E    S  S S  S S  S   S  S S  S S  S S  S Q      Q         Q
||-------------------------------------------|---------------------------------------------|
||o------------------------------------------|---------------------------------------------|
||----------------------10-------------------|---------------------------------------------|
||----------------------10-------------------|---------------------5------4---------3------|
||o----------------------8-------------------|---------------------5------4---------3------|
||--0--0-0--0-0--0-0--0-------0--0-0--0-0--0-|-0--0-0--0-0--0-0--0-3------2---------1------|
|
|   Gtr III
|      T    T    T    T     T    T    T    T      T    T    T    T    T      T    T      T
|   S  S S  S S  S S  S  S  S S  S S  S S  S   S  S S  S S  S S  S S  S S    S S  S   S  S
||-------------------------------------------|---------------------------------------------|
||o------------------------------------------|---------------------------------------------|
||--4h16p4h16p4h16p4h16p=2h16p2h16p2h16p2h16p|=0h16p0h16p0h16p0h16p2h16p2h==16p2h16p==2h16-|
||-------------------------------------------|---------------------------------------------|
||o------------------------------------------|---------------------------------------------|
||-------------------------------------------|---------------------------------------------|


  PM---------------|        PM--------------------------------|        PM----------|
  S  S S  S S  S S  S  E    S  S S  S S  S   S  S S  S S  S S  S  E    S  S S  S S  S
|------------------------------------------|--------------------------------------------||
|------------------------------------------|-------------------------------------------o||
|---------------------10-------------------|---------------------10---------------------||
|---------------------10-------------------|---------------------10---------------------||
|----------------------8-------------------|----------------------8--------------------o||
|-0--0-0--0-0--0-0--0-------0--0-0--0-0--0-|-0--0-0--0-0--0-0--0-------0--0-0--0-0--0---||
|
|    T    T    T    T     T    T    T    T      T    T    T    T     T    T    T    T
| S  S S  S S  S S  S  S  S S  S S  S S  S   S  S S  S S  S S  S  S  S S  S S  S S  S
|------------------------------------------|--------------------------------------------||
|------------------------------------------|-------------------------------------------o||
|-4h16p4h16p4h16p4h16p=2h16p2h16p2h16p2h16p|=0h16p0h16p0h16p0h16p=2h16p2h16p2h16p2h16---||
|------------------------------------------|--------------------------------------------||
|------------------------------------------|-------------------------------------------o||
|------------------------------------------|--------------------------------------------||


   PM----------------|     PM|         PM-------------|     PM|
   S     S S S S S S S  E  E E  E      S  S S S S S S S  E  E E  E
|----------------------------------|--------------------------------|
|----------------------------------|--------------------------------|
|----------------------------------|--------------------------------|
|----------------------------------|--------------------------------|
|----------------------------------|--------------------------------|
|--0-----0-0-0-0-0-0-0-<3>-0-0-<3>-|---0--0-0-0-0-0-0-0-<3>-0-0-<3>-|
|
|  T
|  W                                  +W
|----------------------------------|--------------------------------|
|----------------------------------|--------------------------------|
|-14b16============================|=(14)---------------------------|
|----------------------------------|--------------------------------|
|----------------------------------|--------------------------------|
|----------------------------------|--------------------------------|


    PM--------------|     PM|       PM--------------------|
    S   S S S S S S S  E  E E  E    S S S S S S S S S S S S  Q
|---------------------------------|-------------------------------|
|---------------------------------|-------------------------------|
|---------------------------------|-------------------------------|
|---------------------------------|-------------------------------|
|---------------------------------|-------------------------------|
|---0---0-0-0-0-0-0-0-<3>-0-0-<3>-|-0-0-0-0-0-0-0-0-0-0-0-0-<3>---|
|
|  +W                               W
|---------------------------------|-------------------------------|
|---------------------------------|-------------------------------|
|-(14)r---------------------------|-------------------------------|
|---------------------------------|-------------------------------|
|---------------------------------|-------------------------------|
|---------------------------------|-------------------------------|


         PM----|     PM|       PM------------|     PM|
   +Q    S S S S  E  E E  E    S S S S S S S S  E  E E  E
|----------------------------|-----------------------------|
|----------------------------|-----------------------------|
|----------------------------|-----------------------------|
|----------------------------|-----------------------------|
|----------------------------|-----------------------------|
|-(<3>)--0-0-0-0-<3>-0-0-<3>-|-0-0-0-0-0-0-0-0-<3>-0-0-<3>-|


  PM------------|     PM|       PM--------------------|
  S S S S S S S S  E  E E  E    S S S S S S S S S S S S  Q
|-----------------------------|--------------------------------|
|-----------------------------|--------------------------------|
|-----------------------------|--------------------------------|
|-----------------------------|--------------------------------|
|-----------------------------|--------------------------------|
|-0-0-0-0-0-0-0-0-<3>-0-0-<3>-|-0-0-0-0-0-0-0-0-0-0-0-0-<3>----|


  Gtr I
   W                 +H.           Q     +W                 +H.           Q
|-----------------|--------------------|------------------|-------------------|
|-----------------|--------------------|------------------|-------------------|
|-10--------------|-(10)-----------7---|-(7)--------------|-(7)-----------9---|
|-10--------------|-(10)-----------7---|-(7)--------------|-(7)-----------9---|
|--8--------------|--(8)-----------5---|-(5)--------------|-(5)-----------7---|
|-----------------|--------------------|------------------|-------------------|
|
| Gtr II
|     PM--------|        PM--------|          PM--------|       PM--------|
|  Q  E E E E E E     E  E E E E E E E    Q   E E E E E E    E  E E E E E E E
|-----------------|--------------------|------------------|-------------------|
|-----------------|--------------------|------------------|-------------------|
|-----------------|--------------------|------------------|-------------------|
|-----------------|--------------------|------------------|-------------------|
|-----2-2-5-5-4-4-|------2-2-5-5-4-4---|------2-2-5-5-4-4-|-----2-2-5-5-4-4---|
|-----0-0-3-3-2-2-|------0-0-3-3-2-2---|------0-0-3-3-2-2-|-----0-0-3-3-2-2---|


  +W                 +H.           Q     +H.          Q     E E Q   E E Q
|------------------|-------------------|------------------|----------------|
|------------------|-------------------|------------------|----------------|
|-(9)--------------|-(9)-----------5---|-(5)--------------|----------------|
|-(9)--------------|-(9)-----------5---|-(5)--------------|-5-5-----5-5----|
|-(7)--------------|-(7)-----------3---|-(3)--------------|----------------|
|------------------|-------------------|------------------|----------------|
|
|      PM--------|       PM--------|          PM--------|     PM------|
|  Q   E E E E E E    E  E E E E E E E    Q   E E E E E E   E E E E E E Q
|------------------|-------------------|------------------|----------------|
|------------------|-------------------|------------------|----------------|
|------------------|-------------------|------------------|----------------|
|------------------|-------------------|------------------|----------------|
|------2-2-5-5-4-4-|-----2-2-5-5-4-4---|------2-2-5-5-4-4-|---2-2-5-5-4----|
|------0-0-3-3-2-2-|-----0-0-3-3-2-2---|------0-0-3-3-2-2-|---0-0-3-3-2----|


   W                  +H.            Q
|------------------|--------------------|
|------------------|--------------------|
|-10---------------|-(10)------------7--|
|-10---------------|-(10)------------7--|
|--8---------------|--(8)------------5--|
|------------------|--------------------|
|
|  PM--------|   PM-------------|
|  E E E E E E E E     E  E E E E Q.
|------------------|--------------------|
|------------------|--------------------|
|------------------|--------------------|
|------------------|--------------------|
|--2-2-5-5-4-4---2-|---2--5-5-4-4-------|
|--0-0-3-3-2-2---0-|---0--3-3-2-2-------|


  +W                  +H.            Q
|-------------------|-------------------|
|-------------------|-------------------|
|-(7)---------------|-(7)------------9--|
|-(7)---------------|-(7)------------9--|
|-(5)---------------|-(5)------------7--|
|-------------------|-------------------|
|
|  PM---------|   PM------------|
|  E  E E E E E E E    E  E E E E Q.
|-------------------|-------------------|
|-------------------|-------------------|
|-------------------|-------------------|
|-------------------|-------------------|
|--2--2-5-5-4-4---2-|--2--5-5-4-4-------|
|--0--0-3-3-2-2---0-|--0--3-3-2-2-------|


                                                                  PM|
  +W                  +H.            Q    +H.           Q     E E E E E E Q
|-------------------|-------------------|-------------------|----------------|
|-------------------|-------------------|-------------------|----------------|
|-(9)---------------|-(9)------------5--|-(5)---------------|----------------|
|-(9)---------------|-(9)------------5--|-(5)---------------|-5-5-----5-5----|
|-(7)---------------|-(7)------------3--|-(3)---------------|-5-5-2-2-4-4----|
|-------------------|-------------------|-------------------|-3-3-0-0-2-2----|
|
|  PM---------|   PM------------|          PM-------------|       PM|
|  E  E E E E E E E    E  E E E E Q.       E  E E E E E E E   E E E E E E Q
|-------------------|-------------------|-------------------|----------------|
|-------------------|-------------------|-------------------|----------------|
|-------------------|-------------------|-------------------|----------------|
|-------------------|-------------------|-------------------|-5-5-----5-5----|
|--2--2-5-5-4-4---2-|--2--5-5-4-4-------|--2--2-5-5-4-4-2-2-|-5-5-2-2-4-4----|
|--0--0-3-3-2-2---0-|--0--3-3-2-2-------|--0--0-3-3-2-2-0-0-|-3-3-0-0-2-2----|


   W                  +H.           Q     +W                  +H.          Q
|------------------|--------------------|-------------------|------------------|
|------------------|--------------------|-------------------|------------------|
|-10---------------|-(10)-----------7---|-(7)---------------|-(7)----------9---|
|-10---------------|-(10)-----------7---|-(7)---------------|-(7)----------9---|
|--8---------------|--(8)-----------5---|-(5)---------------|-(5)----------7---|
|------------------|--------------------|-------------------|------------------|
|
|  PM--------|   PM-------------|   PM------------|   PM------------|      PM|
|  E E E E E E E E     E  E E E E E E E    E  E E E E E E E    E  E E Q.   E E
|------------------|--------------------|-------------------|------------------|
|------------------|--------------------|-------------------|------------------|
|------------------|--------------------|-------------------|------------------|
|------------------|--------------------|-------------------|------------------|
|--2-2-5-5-4-4---2-|---2--5-5-4-4---2-2-|--5--5-4-4---2-2-5-|--5--4-4------2-2-|
|--0-0-3-3-2-2---0-|---0--3-3-2-2---0-0-|--3--3-2-2---0-0-3-|--3--2-2------0-0-|


                                                                PM|
  +W                  +H.          Q     +H.          Q     E E E E E E Q
|-------------------|------------------|------------------|----------------|
|-------------------|------------------|------------------|----------------|
|-(9)---------------|-(9)----------5---|-(5)--------------|----------------|
|-(9)---------------|-(9)----------5---|-(5)--------------|-5-5-----5-5----|
|-(7)---------------|-(7)----------3---|-(3)--------------|-5-5-2-2-4-4----|
|-------------------|------------------|------------------|-3-3-0-0-2-2----|
|
|  PM-----|   PM------------|      PM------------|    PM|       PM|
|  E  E E E E E E E    E  E E Q.   E E    E  E E E Q  E E   E E E E E E Q
|-------------------|------------------|------------------|----------------|
|-------------------|------------------|------------------|----------------|
|-------------------|------------------|------------------|----------------|
|-------------------|------------------|------------------|-5-5-----5-5----|
|--5--5-4-4---2-2-5-|--5--4-4------2-2-|--5--5-4-4----2-2-|-5-5-2-2-4-4----|
|--3--3-2-2---0-0-3-|--3--2-2------0-0-|--3--3-2-2----0-0-|-3-3-0-0-2-2----|


   W                  +H.            Q
|------------------|--------------------|
|------------------|--------------------|
|-10---------------|-(10)------------7--|
|-10---------------|-(10)------------7--|
|--8---------------|--(8)------------5--|
|------------------|--------------------|
|
|  PM--------|   PM-------------|
|  E E E E E E E E     E  E E E E Q.
|------------------|--------------------|
|------------------|--------------------|
|------------------|--------------------|
|------------------|--------------------|
|--2-2-5-5-4-4---2-|---2--5-5-4-4-------|
|--0-0-3-3-2-2---0-|---0--3-3-2-2-------|


  +W                  +H.           Q
|-------------------|-------------------|
|-------------------|-------------------|
|-(7)---------------|-(7)-----------9---|
|-(7)---------------|-(7)-----------9---|
|-(5)---------------|-(5)-----------7---|
|-------------------|-------------------|
|
|  PM---------|   PM------------|   PM|
|  E  E E E E E E E    E  E E E E E E E
|-------------------|-------------------|
|-------------------|-------------------|
|-------------------|-------------------|
|-------------------|-------------------|
|--2--2-5-5-4-4---2-|--2--5-5-4-4---2-2-|
|--0--0-3-3-2-2---0-|--0--3-3-2-2---0-0-|


                                                                PM|
  +W                  +H.          Q     +H.          Q     E E E E E E Q
|-------------------|------------------|------------------|----------------|
|-------------------|------------------|------------------|----------------|
|-(9)---------------|-(9)----------5---|-(5)--------------|----------------|
|-(9)---------------|-(9)----------5---|-(5)--------------|-5-5-----5-5----|
|-(7)---------------|-(7)----------3---|-(3)--------------|-5-5-2-2-4-4----|
|-------------------|------------------|------------------|-3-3-0-0-2-2----|
|
|  PM-----|   PM------------|      PM------------|    PM|       PM|
|  E  E E E E E E E    E  E E Q.   E E    E  E E E Q  E E   E E E E E E Q
|-------------------|------------------|------------------|----------------|
|-------------------|------------------|------------------|----------------|
|-------------------|------------------|------------------|----------------|
|-------------------|------------------|------------------|-5-5-----5-5----|
|--5--5-4-4---2-2-5-|--5--4-4------2-2-|--5--5-4-4----2-2-|-5-5-2-2-4-4----|
|--3--3-2-2---0-0-3-|--3--2-2------0-0-|--3--3-2-2----0-0-|-3-3-0-0-2-2----|


  Gtrs I, II
    PM|    PM|     PM--|     PM|      PM   PM
  E E  E E E  E  E E    E  E E  E  E  E E  E
|--------------------|-----------------------|
|--------------------|-----------------------|
|--------------------|-----------------------|
|-9------9------10---|-----7------10----7----|
|-7------7-------7---|-----7-------7----7----|
|---0--0---0--0----0-|--0----0--0-----0----0-|
|
| Gtr III
|      T      T         T       T     T    T
| E E  E E E  E  E E    E  E E  E  E  E E  E
|--------------------|-----------------------|
|--------------------|-----------------------|
|-0h4h16p2h4h16p=0h4h|=16p=2h4h16p=0h16p2h16p|
|--------------------|-----------------------|
|--------------------|-----------------------|
|--------------------|-----------------------|
|
| Gtr IV
| W                    +H.              E  E
|--------------------|-----------------------|
|--------------------|-----------------------|
|--------------------|-----------------------|
|-9------------------|-(9)--------------7--9-|
|--------------------|-----------------------|
|--------------------|-----------------------|


     PM|     PM-|    PM--|     PM|     PM   PM
   E E  E E  E   E E E    E  E E  E E  E E  E
|----------------------|----------------------|
|----------------------|----------------------|
|----------------------|----------------------|
|--5------5--------5---|-----5------5----5----|
|--3-3--3-3--3---3-3-3-|--3--3-3--3-3--3-3--3-|
|----------------------|----------------------|
|
|       T        T        T       T    T    T
|  E E  E E  E   E E E    E  E E  E E  E E  E
|----------------------|----------------------|
|----------------------|----------------------|
|--0h4h16p2h=4h=16p0h4h|=16p=2h4h16p0h16p2h16-|
|----------------------|----------------------|
|----------------------|----------------------|
|----------------------|----------------------|
|
|  Q    E E +H           +W
|----------------------|----------------------|
|----------------------|----------------------|
|----------------------|----------------------|
|-10----9-7-(7)--------|-(7)------------------|
|----------------------|----------------------|
|----------------------|----------------------|


    PM|    PM|    PM--|     PM|     PM   PM
  E E  E E E  E E E    E  E E  E E  E E  E
|-------------------|----------------------|
|-------------------|----------------------|
|-------------------|----------------------|
|-2------2------2---|-----2------2----2----|
|-0-0--0-0-0--0-0-0-|--0--0-0--0-0--0-0--0-|
|-------------------|----------------------|
|
|      T      T        T       T    T    T
| E E  E E E  E E E    E  E E  E E  E E  E
|-------------------|----------------------|
|-------------------|----------------------|
|-0h4h16p2h4h16p0h4h|=16p=2h4h16p0h16p2h16p|
|-------------------|----------------------|
|-------------------|----------------------|
|-------------------|----------------------|
|
| W                   +W
|-------------------|----------------------|
|-------------------|----------------------|
|-------------------|----------------------|
|-------------------|----------------------|
|-7-----------------|-(7)------------------|
|-------------------|----------------------|


    PM|    PM|     PM      PM    PM    PM    PM
  E E  E E E  E  E E    E  E  E  E  E  E  E  E
|--------------------|--------------------------|
|--------------------|--------------------------|
|--------------------|--------------------------|
|-4------4-------4---|--4-----4-----4-----4-----|
|-2-2--2-2-2--2--2-2-|--2--2--2--2--2--2--2--2--|
|--------------------|--------------------------|
|
|      T      T         T        T     T     T
| E E  E E E  E  E E    E  E  E  E  E  E  E  E
|--------------------|--------------------------|
|--------------------|--------------------------|
|-0h4h16p2h4h16p=5p4h|=16p=5p=4h16p=4h16p=2h16p=|
|--------------------|--------------------------|
|--------------------|--------------------------|
|--------------------|--------------------------|
|
| H        E  E  Q      E  E  Q     E  E  Q
|--------------------|--------------------------|
|--------------------|--------------------------|
|--------------------|--------------------------|
|--------------------|--------------------------|
|-9--------9s10-10---|-10s12-12----12s10-10-----|
|--------------------|--------------------------|


       PM---|         PM---|          PM-----|           PM---|          PM        PM
  E    E    E    E    E    E     E    E       E     E    E    E     E    E    E    E
|------------------------------------------|--------------------------------------------|
|------------------------------------------|--------------------------------------------|
|------------------------------------------|--------------------------------------------|
|-9--------------9--------------10---------|--------7--------------10---------7---------|
|-7--------------7---------------7---------|--------7---------------7---------7---------|
|------0----0---------0----0----------0----|--0----------0----0----------0---------0----|
|
|    T    T    T    T    T    T     T    T        T    T    T    T     T    T    T    T
| S  S S  S S  S S  S S  S S  S  S  S S  S    S   S S  S S  S S  S  S  S S  S S  S S  S
|------------------------------------------|--------------------------------------------|
|------------------------------------------|--------------------------------------------|
|-4h16p5h16p4h16p2h16p5h16p4h16p=2h16p5h16p|==4h=16p5h16p4h16p2h16p=5h16p4h16p2h16p5h16-|
|------------------------------------------|--------------------------------------------|
|------------------------------------------|--------------------------------------------|
|------------------------------------------|--------------------------------------------|
|
| W                                          +H.                              E    E
|------------------------------------------|--------------------------------------------|
|------------------------------------------|--------------------------------------------|
|------------------------------------------|--------------------------------------------|
|-9----------------------------------------|-(9)------------------------------7----9----|
|------------------------------------------|--------------------------------------------|
|------------------------------------------|--------------------------------------------|


        PM---|          PM----|         PM-----|           PM---|         PM        PM
   E    E    E    E     E     E    E    E       E     E    E    E    E    E    E    E
|--------------------------------------------|-----------------------------------------------|
|--------------------------------------------|-----------------------------------------------|
|--------------------------------------------|-----------------------------------------------|
|--5--------------5----------------5---------|--------5--------------5---------5-------------|
|--3----3----3----3-----3-----3----3----3----|--3-----3----3----3----3----3----3----3--------|
|--------------------------------------------|-----------------------------------------------|
|
|     T    T    T    T      T    T    T    T        T    T    T    T    T    T    T    T
|  S  S S  S S  S S  S  S   S S  S S  S S  S    S   S S  S S  S S  S S  S S  S S  S S  S
|--------------------------------------------|-----------------------------------------------|
|--------------------------------------------|-----------------------------------------------|
|--4h16p5h16p4h16p2h16p=5h=16p4h16p2h16p5h16p|==4h=16p5h16p4h16p2h16p5h16p4h16p2h16p5h16p====|
|--------------------------------------------|-----------------------------------------------|
|--------------------------------------------|-----------------------------------------------|
|--------------------------------------------|-----------------------------------------------|
|
|  Q         E    E    +H                      +W
|--------------------------------------------|-----------------------------------------------|
|--------------------------------------------|-----------------------------------------------|
|--------------------------------------------|-----------------------------------------------|
|-10---------9----7----(7)-------------------|-(7)-------------------------------------------|
|--------------------------------------------|-----------------------------------------------|
|--------------------------------------------|-----------------------------------------------|


       PM---|         PM---|         PM-----|           PM---|         PM        PM
  E    E    E    E    E    E    E    E       E     E    E    E    E    E    E    E
|-----------------------------------------|-------------------------------------------|
|-----------------------------------------|-------------------------------------------|
|-----------------------------------------|-------------------------------------------|
|-2--------------2--------------2---------|--------2--------------2---------2---------|
|-0----0----0----0----0----0----0----0----|--0-----0----0----0----0----0----0----0----|
|-----------------------------------------|-------------------------------------------|
|
|    T    T    T    T    T    T    T    T        T    T    T    T    T    T    T    T
| S  S S  S S  S S  S S  S S  S S  S S  S    S   S S  S S  S S  S S  S S  S S  S S  S
|-----------------------------------------|-------------------------------------------|
|-----------------------------------------|-------------------------------------------|
|-4h16p5h16p4h16p2h16p5h16p4h16p2h16p5h16p|==4h=16p5h16p4h16p2h16p5h16p4h16p2h16p5h16-|
|-----------------------------------------|-------------------------------------------|
|-----------------------------------------|-------------------------------------------|
|-----------------------------------------|-------------------------------------------|
|
| W                                         +W
|-----------------------------------------|-------------------------------------------|
|-----------------------------------------|-------------------------------------------|
|-----------------------------------------|-------------------------------------------|
|-----------------------------------------|-------------------------------------------|
|-7---------------------------------------|-(7)---------------------------------------|
|-----------------------------------------|-------------------------------------------|


       PM---|         PM---|         PM          PM        PM        PM        PM
  E    E    E    E    E    E    E    E      E    E    E    E    E    E    E    E
|-----------------------------------------|--------------------------------------------|
|-----------------------------------------|--------------------------------------------|
|-----------------------------------------|--------------------------------------------|
|-4--------------4--------------4---------|-4---------4---------4---------4------------|
|-2----2----2----2----2----2----2----2----|-2----2----2----2----2----2----2----2-------|
|-----------------------------------------|--------------------------------------------|
|
|    T    T    T    T    T    T    T    T      T    T    T    T    T    T    T    T
| S  S S  S S  S S  S S  S S  S S  S S  S   S  S S  S S  S S  S S  S S  S S  S S  S
|-----------------------------------------|--------------------------------------------|
|-----------------------------------------|--------------------------------------------|
|-4h16p5h16p4h16p2h16p5h16p4h16p2h16p5h16p|=4h16p5h16p4h16p2h16p5h16p4h16p2h16p5h16----|
|-----------------------------------------|--------------------------------------------|
|-----------------------------------------|--------------------------------------------|
|-----------------------------------------|--------------------------------------------|
|
| E    E    Q         E    E    Q           E    E    Q         E    E    Q
|-----------------------------------------|--------------------------------------------|
|-----------------------------------------|--------------------------------------------|
|-----------------------------------------|--------------------------------------------|
|-----------------------------------------|--------------------------------------------|
|-----------------------------------------|-3s===5----5---------5s===9----9------------|
|-5s===7----7---------7s===8----8---------|--------------------------------------------|


  PM-------------------------------------------------
  S S E E S S E E S S E    E  S S E E E S S S S S S
|-----------------------|---------------------------|
|-----------------------|---------------------------|
|-----------------------|---------------------------|
|-----------------------|---------------------------|
|-2-2-2-2-2-2-2-2-2-2-2-|--2--2-2-2-2-2-2-2-2-2-2-2-|
|-0-0-0-0-0-0-0-0-0-0-0-|--0--0-0-0-0-0-0-0-0-0-0-0-|
|
| Gtr IV
| W                       +W
|-----------------------|---------------------------|
|-----------------------|---------------------------|
|-----------------------|---------------------------|
|-----------------------|---------------------------|
|-7---------------------|-(7)-----------------------|
|-----------------------|---------------------------|


 --------------------------------------|
   S  S E E S S E E S S E     E  S S E E E Q.
|-------------------------|----------------------|
|-------------------------|----------------------|
|-------------------------|----------------------|
|-------------------------|----------------------|
|--2--2-2-2-2-2-2-2-2-2-2-|---2--2-2-2-2-2-------|
|--0--0-0-0-0-0-0-0-0-0-0-|---0--0-0-0-0-0-------|
|
|  W                         +W
|-------------------------|----------------------|
|-------------------------|----------------------|
|-------------------------|----------------------|
|-10----------------------|-(10)-----------------|
|-(7)---------------------|--(7)-----------------|
|-------------------------|----------------------|


  PM-------------------------------------------------
  S S E E S S E E S S E    E  S S E E E S S S S S S
|-----------------------|---------------------------|
|-----------------------|---------------------------|
|-----------------------|---------------------------|
|-----------------------|---------------------------|
|-2-2-2-2-2-2-2-2-2-2-2-|--2--2-2-2-2-2-2-2-2-2-2-2-|
|-0-0-0-0-0-0-0-0-0-0-0-|--0--0-0-0-0-0-0-0-0-0-0-0-|
|
| W                       +W
|-----------------------|---------------------------|
|-----------------------|---------------------------|
|-5---------------------|-(5)-----------------------|
|-5---------------------|-(5)-----------------------|
|-3---------------------|-(3)-----------------------|
|-----------------------|---------------------------|


 ---------------------------------|
  S S E E S S E E S S E   E S S E E E Q.
|-----------------------|---------------------|
|-----------------------|---------------------|
|-----------------------|---------------------|
|-----------------------|---------------------|
|-2-2-2-2-2-2-2-2-2-2-2-|-2-2-2-2-2-2---------|
|-0-0-0-0-0-0-0-0-0-0-0-|-0-0-0-0-0-0---------|
|
| W                       E E   E E E E  E E
|-----------------------|---------------------|
|-----------------------|---------------------|
|-7---------------------|---------------------|
|-7---------------------|-5-------5------5----|
|-5---------------------|---7---7---7-7----7--|
|-----------------------|---------------------|


  PM-------------------------------------------------
  S S E E S S E E S S E    E  S S E E E S S S S S S
|-----------------------|---------------------------|
|-----------------------|---------------------------|
|-----------------------|---------------------------|
|-----------------------|---------------------------|
|-2-2-2-2-2-2-2-2-2-2-2-|--2--2-2-2-2-2-2-2-2-2-2-2-|
|-0-0-0-0-0-0-0-0-0-0-0-|--0--0-0-0-0-0-0-0-0-0-0-0-|
|
| W                       +W
|-----------------------|---------------------------|
|-----------------------|---------------------------|
|-----------------------|---------------------------|
|-----------------------|---------------------------|
|-7---------------------|-(7)-----------------------|
|-----------------------|---------------------------|


 --------------------------------------|
   S  S E E S S E E S S E     E  S S E E E Q.
|-------------------------|----------------------|
|-------------------------|----------------------|
|-------------------------|----------------------|
|-------------------------|----------------------|
|--2--2-2-2-2-2-2-2-2-2-2-|---2--2-2-2-2-2-------|
|--0--0-0-0-0-0-0-0-0-0-0-|---0--0-0-0-0-0-------|
|
|  W                         +W
|-------------------------|----------------------|
|-------------------------|----------------------|
|-------------------------|----------------------|
|-10----------------------|-(10)-----------------|
|-(7)---------------------|--(7)-----------------|
|-------------------------|----------------------|


  PM-------------------------------------------------
  S S E E S S E E S S E    E  S S E E E S S S S S S
|-----------------------|---------------------------|
|-----------------------|---------------------------|
|-----------------------|---------------------------|
|-----------------------|---------------------------|
|-2-2-2-2-2-2-2-2-2-2-2-|--2--2-2-2-2-2-2-2-2-2-2-2-|
|-0-0-0-0-0-0-0-0-0-0-0-|--0--0-0-0-0-0-0-0-0-0-0-0-|
|
| W                       +W
|-----------------------|---------------------------|
|-----------------------|---------------------------|
|-5---------------------|-(5)-----------------------|
|-5---------------------|-(5)-----------------------|
|-3---------------------|-(3)-----------------------|
|-----------------------|---------------------------|


 ---------------------------------|
  S S E E S S E E S S E   E S S E E E Q.
|-----------------------|---------------------|
|-----------------------|---------------------|
|-----------------------|---------------------|
|-----------------------|---------------------|
|-2-2-2-2-2-2-2-2-2-2-2-|-2-2-2-2-2-2---------|
|-0-0-0-0-0-0-0-0-0-0-0-|-0-0-0-0-0-0---------|
|
| W                       E E   E E E E  E E
|-----------------------|---------------------|
|-----------------------|---------------------|
|-7---------------------|---------------------|
|-7---------------------|-5-------5------5----|
|-5---------------------|---7---7---7-7-------|
|-----------------------|---------------------|


  Gtr I
  PM------------|     PM|       PM------------|     PM|
  S S S S S S S S  E  E E  E    S S S S S S S S  E  E E  E
|-----------------------------|-----------------------------|
|-----------------------------|-----------------------------|
|-----------------------------|-----------------------------|
|-----------------------------|-----------------------------|
|-----------------------------|-----------------------------|
|-0-0-0-0-0-0-0-0-<3>-0-0-<3>-|-0-0-0-0-0-0-0-0-<3>-0-0-<3>-|
|
| Gtr II
| PM------------|     PM|       PM------------|     PM|
| S S S S S S S S  E  E E  E    S S S S S S S S  E  E E  E
|-----------------------------|-----------------------------|
|-----------------------------|-----------------------------|
|-----------------------------|-----------------------------|
|-----------------------------|-----------------------------|
|------------------5-------3--|------------------5-------3--|
|-0-0-0-0-0-0-0-0--3--0-0--1--|-0-0-0-0-0-0-0-0--3--0-0--1--|


  PM------------|     PM|       PM--------------------|
  S S S S S S S S  E  E E  E    S S S S S S S S S S S S  Q
|-----------------------------|-------------------------------|
|-----------------------------|-------------------------------|
|-----------------------------|-------------------------------|
|-----------------------------|-------------------------------|
|-----------------------------|-------------------------------|
|-0-0-0-0-0-0-0-0-<3>-0-0-<3>-|-0-0-0-0-0-0-0-0-0-0-0-0-<3>---|
|
| PM------------|     PM|       PM--------------------|
| S S S S S S S S  E  E E  E    S S S S S S S S S S S S  Q
|-----------------------------|-------------------------------|
|-----------------------------|-------------------------------|
|-----------------------------|-------------------------------|
|-----------------------------|-------------------------------|
|------------------5-------3--|-------------------------------|
|-0-0-0-0-0-0-0-0--3--0-0--1--|-0-0-0-0-0-0-0-0-0-0-0-0-------|


           PM----|     PM|       PM------------|     PM|
     +Q    S S S S  E  E E  E    S S S S S S S S  E  E E  E
||-----------------------------|-----------------------------|
||o----------------------------|-----------------------------|
||-----------------------------|-----------------------------|
||-----------------------------|-----------------------------|
||o----------------------------|-----------------------------|
||--(<3>)--0-0-0-0-<3>-0-0-<3>-|-0-0-0-0-0-0-0-0-<3>-0-0-<3>-|
|
|          PM----|     PM|       PM------------|     PM|
|     Q    S S S S  E  E E  E    S S S S S S S S  E  E E  E
||-----------------------------|-----------------------------|
||o----------------------------|-----------------------------|
||-----------------------------|-----------------------------|
||-----------------------------|-----------------------------|
||o-----------------5-------3--|------------------5-------3--|
||---------0-0-0-0--3--0-0--1--|-0-0-0-0-0-0-0-0--3--0-0--1--|


  PM------------|     PM|       PM--------------------|
  S S S S S S S S  E  E E  E    S S S S S S S S S S S S  Q      3x
|-----------------------------|---------------------------------||
|-----------------------------|--------------------------------o||
|-----------------------------|---------------------------------||
|-----------------------------|---------------------------------||
|-----------------------------|--------------------------------o||
|-0-0-0-0-0-0-0-0-<3>-0-0-<3>-|-0-0-0-0-0-0-0-0-0-0-0-0-<3>-----||
|
| PM------------|     PM|       PM--------------------|
| S S S S S S S S  E  E E  E    S S S S S S S S S S S S  Q      3x
|-----------------------------|---------------------------------||
|-----------------------------|--------------------------------o||
|-----------------------------|---------------------------------||
|-----------------------------|---------------------------------||
|------------------5-------3--|--------------------------------o||
|-0-0-0-0-0-0-0-0--3--0-0--1--|-0-0-0-0-0-0-0-0-0-0-0-0---------||


Duration Legend
---------------
W - whole; H - half; Q - quarter; E - 8th; S - 16th; T - 32nd; X - 64th; a - acciaccatura
+ - note tied to previous; . - note dotted; .. - note double dotted
Uncapitalized letters represent notes that are staccato (1/2 duration)
Irregular groupings are notated above the duration line
Duration letters will always appear directly above the note/fret number it represents the
duration for.  Duration letters with no fret number below them represent rests.  Multi-
bar rests are notated in the form Wxn, where n is the number of bars to rest for.  Low
melody durations appear below the staff

Tablature Legend
----------------
 h   - hammer-on
 p   - pull-off
 b   - bend
 pb  - pre-bend
 r   - bend release (if no number after the r, then release immediately)
 /\  - slide into or out of (from/to "nowhere")
 s   - legato slide
 S   - shift slide
  - natural harmonic
[n]  - artificial harmonic
n(n) - tapped harmonic
 ~   - vibrato
 tr  - trill
 T   - tap
 TP  - trem. picking
 PM  - palm muting
\n/  - tremolo bar dip; n = amount to dip
 \n  - tremolo bar down
 n/  - tremolo bar up
/n\  - tremolo bar inverted dip
 =   - hold bend; also acts as connecting device for hammers/pulls
 <>  - volume swell (louder/softer)
 x   - on rhythm slash represents muted slash
 o   - on rhythm slash represents single note slash

Misc Legend
-----------
 |  - bar
||  - double bar
||o - repeat start
o|| - repeat end
*|  - double bar (ending)
 :  - bar (freetime)
 $  - Segno
 &  - Coda
Tempo markers -  = BPM(8/16=s8/s16), where s8 = swing 8ths, s16 = swing 16ths

            
            
Suggest correction
Creating personal tab
Creating personal tab
You can edit any tab online and save it as your Personal.

You can edit, replace or remove any tab part or add personal notes – all changes will be seen only by you.

Personal tabs can be accessed anytime from any device, even offline.
Learn more »
Give kudos to tab author, rate the tab!
1 2 3 4 5
comments
print report bad tab
guest
You may want to rate the tab now too:
select rating
Wanna post a correction for this tab? Suggest correction