Oops, an error
Loading. Please wait.

Lame intro tab

31 views 1 this week
no commentswrite comment
1 2 3 4 5
3 more votes to show rating
add to favorites
×
Save as Personal and add changes to this tab that will be seen only by you. Learn more ›
×
You can save this tab as Personal to edit and correct it or add notes. All changes will be seen only by you. Learn more »
launch autoscroll
font size
0
reset
how to read this tab
guitar tuner
edit
Autoscroll
slow
fast
+/-
esc
set tempo
stop
Author
Burn The Priest - Lame - Burn The Priest 1999 

INTRO

Tabbed by Nanna_guy414 

Tuning: Drop C 

The first part I believe is close to spot on not so much the next part, Almost have the rest of the song
tabbed out just missing a few parts. Please rate and comment any corrections.


[Intro]

d|---------------------------------|
A|---------------------------------|
F|---------------------------------|
C|---------------------------------|
G|-2-----3-2-----2-----3-2---------|
C|---3-2-----3-2---3-2-----3-2-----|(x3)

d|----------------------------------------|
A|----------------------------------------|
F|----------------------------------------|
C|----------------------------------------|
G|-3-2-----2-----3-2-----2-----3-2--------|
C|-----3-2---3-2-----3-2---3-2-----3-2----|

d|---------------------------------|
A|---------------------------------|
F|---------------------------------|
C|---------------------------------|
G|-2-----3-2-----2-----3-2---------|
C|---3-2-----3-2---3-2-----3-2-----|

d|---------------------------------------|
A|---------------------------------------|
F|---------------------------------------|
C|---------------------------------------|
G|-5-----4-----3---2-----1-----1---------|
C|---4-3---3-4---4---3-2---3-2---3-2-----|(x4)
                     * *   * *   * *



************************************

| *   Palm Mute

************************************
Suggest correction
Creating personal tab
Creating personal tab
You can edit any tab online and save it as your Personal.

You can edit, replace or remove any tab part or add personal notes – all changes will be seen only by you.

Personal tabs can be accessed anytime from any device, even offline.
Learn more »
Give kudos to tab author, rate the tab!
1 2 3 4 5
comments
print report bad tab
guest
You may want to rate the tab now too:
select rating
Wanna post a correction for this tab? Suggest correction