Oops, an error
Loading. Please wait.

Lies Of Autumn tab

version 1
version 1

Whole song

3,742 views 3 this week
5 commentsread comments
1 2 3 4 5
x 8
add to favorites
×
Save as Personal and add changes to this tab that will be seen only by you. Learn more ›
×
You can save this tab as Personal to edit and correct it or add notes. All changes will be seen only by you. Learn more »
launch autoscroll
font size
0
reset
how to read this tab
guitar tuner
edit
Autoscroll
slow
fast
+/-
esc
set tempo
stop
Author
Difficulty
----------------------------------------------------------------------------
                             Lies of Autumn - Burn The Priest
----------------------------------------------------------------------------
Tabbed by:CrosseGod18
Email:crossegod@yahoo.com

Tuning:DADGBE

e|------|    |--------------------------------------|
B|------|    |--------------------------------------|
G|------|    |--------------------------------------|
D|------|    |--------------------------------------|x6 The 6th time play
A|--0-0-|    |6/5--0--6/5-3--3\5-3--0--6/5---000-0--|   the last note open
D|--0-0-|    |6/5--0--6/5-3--3\5-3--0--6/5---000-0--|
    * *            *                *        *** *


e|-------------------------------------------------------------------------|
B|-------------------------------------------------------------------------|
G|-------------------------------------------------------------------------|
D|-------------------------------------------------------------------------|
A|------3~------3------7~--0-------3~-------3-----0-------3~-----3~-5-8-4-7|
D|--5-6-----5-6----5-6-----0---5-6------5-6---5---0---5-6----5-6-----------|
                           x            * * * *   x   * *    * *


e|-----------------|  |-----------|
B|-----------------|  |-----------|
G|-----------------|  |-----------|
D|-----------------|  |-----------|x18
A|----------5-6-3--|  |--1-0-2-0--|
D|--5-6-3---5-6-3--|  |--1-0-2-0--|
    x x x   * *          * * * *


e|------|    |--------------------------------------|
B|------|    |--------------------------------------|
G|------|    |--------------------------------------|
D|------|    |--------------------------------------|x6
A|--0-0-|    |6/5--0--6/5-3--3\5-3--0--6/5---000-0--|
D|--0-0-|    |6/5--0--6/5-3--3\5-3--0--6/5---000-0--|
    * *            *                *        *** *

e|-----------------------------------------|
B|-----------------------------------------|
G|-----------------------------------------|
D|-----------------------------------------|
A|-----------------------------------6-5-4-|
D|--5p3-0-4p3--5p3-0-4p3--5p3-0-4p3--6-5-4-|
        *          *          *


e|-------------------------------|
B|-------------------------------|
G|-------------------------------|
D|-------------------------------|x8
A|-6-0-5-0-6-0-5-0-6-0-5-0-55-6--|
D|-6-0-5-0-6-0-5-0-6-0-5-0-55-6--|
     *   *   *   *   *   *


e|----------------|
B|----------------|
G|----------------|
D|----------------|x5
A|----------------|
D|---000545-000654|

e|-----------|
B|-----------|
G|-----------|
D|-----------|
A|--2-1-2-0--|
D|--2-1-2-0--|
    * * * *
end on machine gunning along with the double kicks on palm muted open D string. Hope you 
it. Please rate!!! leave comments or suggestions, this is not my first tab but it was 
so be gentle.


| /  slide up
| \  slide down
| h  hammer-on
| p  pull-off
| ~  vibrato
| +  harmonic
| *  Normal Palm Mute
| x  Light Palm Mute
============================================================================
Suggest correction
Creating personal tab
Creating personal tab
You can edit any tab online and save it as your Personal.

You can edit, replace or remove any tab part or add personal notes – all changes will be seen only by you.

Personal tabs can be accessed anytime from any device, even offline.
Learn more »
comments
print report bad tab
5 comments total. Showing first comments.
0 reply
stumtk 217 Jul 22, 2006 07:54 PM

Good job man! Sounds pretty good. Do a couple other Burn the Priest tabs cause theres like none here.

0 reply
Zveber 10 Apr 23, 2007 01:06 AM

The first riff
e|------| |--------------------------------------|
B|------| |--------------------------------------|
G|------| |--------------------------------------|
D|------| |--------------------------------------|x6 The 6th time play
A|--0-0-| |6/5--0--6/5-3--3\5-3--0--6/5---330-0--| the last note open
D|--0-0-| |6/5--0--6/5-3--3\5-3--0--6/5---330-0--|
* * * * *** *

0 reply
Davination 47 Jan 15, 2011 07:16 PM

It's in Drop C, and the intro is up a step

guest
You may want to rate the tab now too:
select rating
Wanna post a correction for this tab? Suggest correction