Oops, an error
Loading. Please wait.

Heart Full Of Black tab

version 2
version 2

Whole song

Interactive

402 views 1 this week
1 commentread comment
1 2 3 4 5
2 more votes to show rating
add to favorites
×
Save as Personal and add changes to this tab that will be seen only by you. Learn more ›
×
You can save this tab as Personal to edit and correct it or add notes. All changes will be seen only by you. Learn more »
launch autoscroll
font size
0
reset
how to read this tab
guitar tuner
backing track
0:00
0:00
edit
Autoscroll
slow
fast
+/-
esc
set tempo
stop
Difficulty
intermediate
-------------------------------------------------------------------------------
                             Heart full of Black ver2 -Burning Brides 
-------------------------------------------------------------------------------
Tabbed by:David
Email:dark_project_@hotmail.com

Tuning:EADGBE

This was done by ear so it is probably screwed up in places but it sounds ok.
   
This is the intro but by using the parts in it, in diferent varations you can
play the chorus and verse etc.Sorry im lazy        
e|-----|--------3-----------------------------------3-----------------------|
B|-2---|----2---3--3--2-----------------------------3--3--2-----------------|
G|-2---|----2---o--2--2----------------------2------0--2--2-----------------|
D|-2---|----2---o--0--2---------------2-------------0--0--2-----------------|
A|-0---|----0---o-----0---------------0--3h4---0----0-----0-----------------|
E|-----|--------3---------x2-----then---------------3-----------------------|

this pops up in the middle somewhere, speed picking.
e|--------------------------------------------------------------------------|
B|--------------------------------------------------------------------------|
G|-14-14-14-14-14-14-14-14-14-14---and-so-on--------------------------------|
D|--------------------------------------------------------------------------|
A|--------------------------------------------------------------------------|
E|--------------------------------------------------------------------------|
        "Show me"

:solo: 
This is probably full of mistakes but you should be able to figure out.
e|--------------------------------------------------------------------------|
B|--------------------------------------------------------------------------|
G|4~---4~--4p2--2-----------------------------------------------------------|
D|-------------4--4-2-4-2---------------------------------------------------|
A|-------------------------4^--4^-4^-4^-4-3---------------------------------|
E|------------------------------Bend-down-----------------------------------|

e|----------------------------------------------------bend-up---------------|
B|---------------------------------------------------17^-17-14--------------|
G|14~-14--------------------14~-14----------------------------17-14---------|
D|------16p14----14-16-------------16p14---14-16--------------------16-14-16|
A|------------16-------------------------16---------------------------------|
E|--------------------------------------------------------------------------|

Any Comments or corrections feel free to email me or submit them.
| ^  bend string 
| /  slide up
| \  slide down
| h  hammer-on
| p  pull-off
| ~  vibrato
| +  harmonic
| x  Mute note
===============================================================================

            
            
Suggest correction
Creating personal tab
Creating personal tab
You can edit any tab online and save it as your Personal.

You can edit, replace or remove any tab part or add personal notes – all changes will be seen only by you.

Personal tabs can be accessed anytime from any device, even offline.
Learn more »
Give kudos to tab author, rate the tab!
1 2 3 4 5
comments
print report bad tab
1 comment total.
0 reply
MPA91589 31 Mar 19, 2006 10:20 AM

first part is good but there are a lot of mistakes

guest
Wanna post a correction for this tab? Suggest correction