Oops, an error
Loading. Please wait.

Heart Full Of Black tab

version 5
version 5

Whole song

Interactive

6,129 views 12 this week
5 commentsread comments
1 2 3 4 5
x 10
add to favorites
×
Save as Personal and add changes to this tab that will be seen only by you. Learn more ›
×
You can save this tab as Personal to edit and correct it or add notes. All changes will be seen only by you. Learn more »
launch autoscroll
font size
0
reset
how to read this tab
guitar tuner
backing track
0:00
0:00
edit
Autoscroll
slow
fast
+/-
esc
set tempo
stop
Difficulty
intermediate
-------------------------------------------------------------------------------
                             Burning Brides - Heart Full of Black
-------------------------------------------------------------------------------
Tabbed by: Matthew Holmes Bennett

Tuning: standard

intro
e|---------------------------------------------------------------------------|
B|---------------------------------------------------------------------------|
G|--------------------7--------7---------------------7---------------------7-|
D|-7------------7--5--7--7--5--7--7--------7------5--7--7--------7------5--7-|
A|-7------------7--5--5--7--5--5--7------4---4----5--5--7------4---4----5--5-|
E|-5------------5--3-----5--3-----5--5-8-------5--3-----5--5-8-------5--3----|

verse            pm-------------|   (x2)
e|------------------------------|
B|------------------------------|
G|-------7----------------------|
D|-7--5--7--7-------------------|
A|-7--5--5--7--3----------------|
E|-5--3-----5----0-3-0-2-3-2----|

pre-chorus
  pm-------------------|
e|---------------------|
B|---------------------|
G|----------9-9-9-9----|
D|-2-2-2-2--9-9-9-9----|
A|-2-2-2-2--7-7-7-7----|
E|-0-0-0-0-------------|

chorus                    (x4)
e|-----------------------|
B|-----------------------|
G|--------------------7--|
D|-7--------7------5--7--|
A|-7------4---4----5--5--|
E|-5--5-8-------5--3-----|

interlude     (x2)
e|-----------|
B|-----------|
G|--------7--|
D|--7--5--7--|
A|--7--5--5--|
E|--5--3-----|

bridge                                      Play a bunch, bend up at the end
e|-----------------------------------------------------------------|
B|---2---5---7----10----14----12----10---5--10-10-10-10-10-10-10b--|
G|---2---5---7----10----14----12----10---5-------------------------|
D|-/2--/5--/7--/10---/14---/12---/10---/5--------------------------|
A|-----------------------------------------------------------------|
E|-----------------------------------------------------------------|

solo                              (3 bend to 4)
e|---------------------------------------------|
B|--4b~~~-4p2---2------------------------------|
G|------------4---4--2--4p2---2----------------|
D|--------------------------4---4-3b-3b-3b-3b--|
A|---------------------------------------------|
E|---------------------------------------------|

     bend/release                         (start from bent 17,pull off to 14)
e|---------------------------------------------------------------------------------------------------|
B|--14br-------------------14br--------------------17b-17brp14----14---------------------------------|
G|--14br-14----------------14br-14-----------------------------17----17-14---------------------------|
D|----------16p14----14-16---------16p14----14-16--------------------------16-15-14------------------|
A|----------------16---------------------16-----------------------------------------16-15-14---------|
E|-------------------------------------------------------------------------------------------17-14/--|

outro                            (x3)
  pm------------------------------|
e|--------------------------------|
B|--------------------------------|
G|--------------------------------|
D|--------------------------------|
A|---------------------4-4-3------|
E|-0-2-0-2-2-0-2-0-2-0-------2----|

pm------------------|
e|------------------|
B|------------------|
G|------------------|
D|------------------|
A|------------------|
E|-0-2-0-2-2-0-2----|

| /  slide up
| \  slide down
| h  hammer-on
| p  pull-off
| ~  vibrato
| +  harmonic
| x  Mute note
===============================================================================

            
            
Suggest correction
Creating personal tab
Creating personal tab
You can edit any tab online and save it as your Personal.

You can edit, replace or remove any tab part or add personal notes – all changes will be seen only by you.

Personal tabs can be accessed anytime from any device, even offline.
Learn more »
comments
print report bad tab
5 comments total. Showing first comments.
0 reply
ratzgame 124 Jun 27, 2007 01:45 PM

I love this solo, good job.

+1 reply
ratzgame 124 Jun 30, 2007 03:22 PM

Oh and the first line of the solo you messed up in the tab. Move the first line down one string like where it says
solo (3 bend to 4)
e|---------------------------------------------|
B|--4b~~~-4p2---2------------------------------|
G|------------4---4--2--4p2---2----------------|
D|--------------------------4---4-3b-3b-3b-3b--|
A|---------------------------------------------|
E|---------------------------------------------|

It should be: (3 bend to 4)
e|---------------------------------------------|
B|---------------------------------------------|
G|--4b~~~-4p2---2------------------------------|
D|------------4---4--2--4p2---2----------------|
A|--------------------------4---4-3b-3b-3b-3b--|
E|---------------------------------------------|

0 reply
gwar4ulz 372 Jul 05, 2007 12:30 PM

hey I know this song
lol
pretty good job man

guest
Wanna post a correction for this tab? Suggest correction