Oops, an error
Loading. Please wait.

Rkd tab

version 1
version 1

Whole song

Interactive

345 views 1 this week
1 commentread comment
1 2 3 4 5
2 more votes to show rating
add to favorites
×
Save as Personal and add changes to this tab that will be seen only by you. Learn more ›
×
You can save this tab as Personal to edit and correct it or add notes. All changes will be seen only by you. Learn more »
launch autoscroll
font size
0
reset
how to read this tab
guitar tuner
edit
Autoscroll
slow
fast
+/-
esc
set tempo
stop
Burning Skies Official Website: http://www.burningskies.co.uk/

      PM PM PM PM PM PM PM PM    PM PM PM PM PM PM PM PM  
      E  E  E  E  E  E  E  E     E  E  E  E  E  E  E  E   
D#||--------------------------|--------------------------|
A#||--------------------------|--------------------------|
F#||--------------------------|--------------------------|
C#||--------------------------|--------------------------|
G#||--3--4--3--2--3--2--1--2--|--4--3--2--3--2--1--2--1--|
C#||--3--4--3--2--3--2--1--2--|--4--3--2--3--2--1--2--1--|


  PM PM PM PM PM PM PM PM    PM PM PM PM PM PM PM PM  
  E  E  E  E  E  E  E  E     E  E  E  E  E  E  E  E   
--------------------------|--------------------------|
--------------------------|--------------------------|
--------------------------|--------------------------|
--------------------------|--------------------------|
--3--4--3--2--3--2--1--2--|--4--3--2--3--2--1--2--1--|
--3--4--3--2--3--2--1--2--|--4--3--2--3--2--1--2--1--|


  PM PM PM PM PM PM PM PM    PM PM PM PM PM PM PM PM  
  E  E  E  E  E  E  E  E     E  E  E  E  E  E  E  E   
--------------------------|--------------------------|
--------------------------|--------------------------|
--------------------------|--------------------------|
--------------------------|--------------------------|
--3--4--3--2--3--2--1--2--|--4--3--2--3--2--1--2--1--|
--3--4--3--2--3--2--1--2--|--4--3--2--3--2--1--2--1--|


  PM PM PM PM PM PM PM PM    PM PM PM PM PM PM PM PM  
  E  E  E  E  E  E  E  E     E  E  E  E  E  E  E  E   
--------------------------|--------------------------|
--------------------------|--------------------------|
--------------------------|--------------------------|
--------------------------|--------------------------|
--3--4--3--2--3--2--1--2--|--4--3--2--3--2--1--2--1--|
--3--4--3--2--3--2--1--2--|--4--3--2--3--2--1--2--1--|


  PM PM PM PM PM PM PM PM    PM PM PM PM PM PM PM PM  
  E  E  E  E  E  E  E  E     E  E  E  E  E  E  E  E   
--------------------------|--------------------------|
--------------------------|--------------------------|
--------------------------|--------------------------|
--------------------------|--------------------------|
--3--4--3--2--3--2--1--2--|--4--3--2--3--2--1--2--1--|
--3--4--3--2--3--2--1--2--|--4--3--2--3--2--1--2--1--|


  PM PM PM PM PM PM PM PM    PM PM PM PM PM            PM PM PM PM PM PM PM PM  
  E  E  E  E  E  E  E  E     E  E  E  E  E  E  Q       E  E  E  E  E  E  E  E   
--------------------------|-------------------------|--------------------------|
--------------------------|-------------------------|--------------------------|
--------------------------|-------------------------|--------------------------|
--------------------------|-------------------------|--------------------------|
--3--4--3--2--3--2--1--2--|--4--3--2--3--2--1-------|--3--4--3--2--3--2--1--2--|
--3--4--3--2--3--2--1--2--|--4--3--2--3--2--1-------|--3--4--3--2--3--2--1--2--|


  PM PM PM PM PM PM PM PM    PM PM PM PM PM PM PM PM  
  E  E  E  E  E  E  E  E     E  E  E  E  E  E  E  E   
--------------------------|--------------------------|
--------------------------|--------------------------|
--------------------------|--------------------------|
--------------------------|--------------------------|
--4--3--2--3--2--1--2--1--|--3--4--3--2--3--2--1--2--|
--4--3--2--3--2--1--2--1--|--3--4--3--2--3--2--1--2--|


  PM PM PM PM PM PM PM PM    PM PM PM PM PM               
  E  E  E  E  E  E  E  E     S  S  S  S  E  Q    E  Q     
--------------------------|------------------------------|
--------------------------|------------------------------|
--------------------------|------------------------------|
--------------------------|------------------------------|
--4--3--2--3--2--1--2--1--|--0--0--0--0--0--1----0--1----|
--4--3--2--3--2--1--2--1--|--0--0--0--0--0--1----0--1----|


  PM PM PM PM PM                   PM PM PM PM PM               
  S  S  S  S  E  E  E  E  E  E     S  S  S  S  E  Q    E  Q     
--------------------------------|------------------------------|
--------------------------------|------------------------------|
--------------------------------|------------------------------|
--------------------------------|------------------------------|
--0--0--0--0--0--4--3--0--1--3--|--0--0--0--0--0--1----0--1----|
--0--0--0--0--0--4--3--0--1--3--|--0--0--0--0--0--1----0--1----|


  PM PM PM PM PM                   PM PM PM PM PM               
  S  S  S  S  E  E  E  E  E  E     S  S  S  S  E  Q    E  Q     
--------------------------------|------------------------------|
--------------------------------|------------------------------|
--------------------------------|------------------------------|
--------------------------------|------------------------------|
--0--0--0--0--0--4--3--0--1-----|--0--0--0--0--0--1----0--1----|
--0--0--0--0--0--4--3--0--1-----|--0--0--0--0--0--1----0--1----|


  PM PM PM PM PM                   PM PM PM PM PM               
  S  S  S  S  E  E  E  E  E  E     S  S  S  S  E  Q    E  Q     
--------------------------------|------------------------------|
--------------------------------|------------------------------|
--------------------------------|------------------------------|
--------------------------------|------------------------------|
--0--0--0--0--0--4--3--0--1--3--|--0--0--0--0--0--1----0--1----|
--0--0--0--0--0--4--3--0--1--3--|--0--0--0--0--0--1----0--1----|


  PM PM PM PM PM                   PM PM PM PM PM               
  S  S  S  S  E  E  E  E  E  E     S  S  S  S  E  Q    E  Q     
--------------------------------|------------------------------|
--------------------------------|------------------------------|
--------------------------------|------------------------------|
--------------------------------|------------------------------|
--0--0--0--0--0--4--3--0--1--3--|--0--0--0--0--0--1----0--1----|
--0--0--0--0--0--4--3--0--1--3--|--0--0--0--0--0--1----0--1----|


  PM PM PM PM PM                   PM PM PM PM PM               
  S  S  S  S  E  E  E  E  E  E     S  S  S  S  E  Q    E  Q     
--------------------------------|------------------------------|
--------------------------------|------------------------------|
--------------------------------|------------------------------|
--------------------------------|------------------------------|
--0--0--0--0--0--4--3--0--1--3--|--0--0--0--0--0--1----0--1----|
--0--0--0--0--0--4--3--0--1--3--|--0--0--0--0--0--1----0--1----|


  PM PM PM PM PM                   PM PM PM PM PM               
  S  S  S  S  E  E  E  E  E  E     S  S  S  S  E  Q    E  Q     
--------------------------------|------------------------------|
--------------------------------|------------------------------|
--------------------------------|------------------------------|
--------------------------------|------------------------------|
--0--0--0--0--0--4--3--0--1--3--|--3--3--3--3--3--4----3--4----|
--0--0--0--0--0--4--3--0--1--3--|--3--3--3--3--3--4----3--4----|


  PM PM PM PM PM PM PM PM PM PM    PM PM PM PM PM               
  S  S  S  S  E  E  E  E  E  E     S  S  S  S  E  Q    E  Q     
--------------------------------|------------------------------|
--------------------------------|------------------------------|
--------------------------------|------------------------------|
--------------------------------|------------------------------|
--3--3--3--3--3--7--6--3--4--6--|--3--3--3--3--3--4----3--4----|
--3--3--3--3--3--7--6--3--4--6--|--3--3--3--3--3--4----3--4----|


  PM PM PM PM PM PM PM PM PM PM    PM PM PM PM PM               
  S  S  S  S  E  E  E  E  E  E     S  S  S  S  E  Q    E  Q     
--------------------------------|------------------------------|
--------------------------------|------------------------------|
--------------------------------|------------------------------|
--------------------------------|------------------------------|
--3--3--3--3--3--7--6--3--4--6--|--3--3--3--3--3--4----3--4----|
--3--3--3--3--3--7--6--3--4--6--|--3--3--3--3--3--4----3--4----|


  PM PM PM PM PM PM PM PM PM PM    PM PM PM PM PM               
  S  S  S  S  E  E  E  E  E  E     S  S  S  S  E  Q    E  Q     
--------------------------------|------------------------------|
--------------------------------|------------------------------|
--------------------------------|------------------------------|
--------------------------------|------------------------------|
--3--3--3--3--3--7--6--3--4--6--|--3--3--3--3--3--4----3--4----|
--3--3--3--3--3--7--6--3--4--6--|--3--3--3--3--3--4----3--4----|


  PM PM PM PM PM PM PM PM PM PM                                         
  S  S  S  S  E  E  E  E  E  E     S S S S S S S S  S  S  S  S S S S S  
--------------------------------|--------------------------------------|
--------------------------------|--------------------------------------|
--------------------------------|--------------------------------------|
--------------------------------|--------------------------------------|
--3--3--3--3--3--7--6--3--4--6--|----------9-9-9-9-12-12-12-12---------|
--3--3--3--3--3--7--6--3--4--6--|--0-0-0-0---------------------8-8-8-8-|


   S  S  S  S  S  S  S  S S S S S S S S S    S S S S S S S S S S S S S S S S  
------------------------------------------|----------------------------------|
------------------------------------------|----------------------------------|
------------------------------------------|----------------------------------|
------------------------------------------|----------5-5-5-5-3-3-3-3---------|
--10-10-10-10-13-13-13-13-----------------|----------------------------------|
--------------------------8-8-8-8-5-5-5-5-|--3-3-3-3-----------------1-1-1-1-|


  S S S S S S S S S S S S S S S S    S S S S S S S S  S  S  S  S S S S S  
----------------------------------|--------------------------------------|
----------------------------------|--------------------------------------|
----------------------------------|--------------------------------------|
--3-3-3-3-0-0-0-0-1-1-1-1-1-1-1-1-|--------------------------------------|
----------------------------------|----------9-9-9-9-12-12-12-12---------|
----------------------------------|--0-0-0-0---------------------8-8-8-8-|


   S  S  S  S  S  S  S  S S S S S S S S S    S S S S S S S S S S S S S S S S  
------------------------------------------|----------------------------------|
------------------------------------------|----------------------------------|
------------------------------------------|----------------------------------|
------------------------------------------|----------5-5-5-5-3-3-3-3---------|
--10-10-10-10-13-13-13-13-----------------|----------------------------------|
--------------------------8-8-8-8-5-5-5-5-|--3-3-3-3-----------------1-1-1-1-|


  S S S S S S S S S S S S S S S S    S S S S S S S S  S  S  S  S S S S S  
----------------------------------|--------------------------------------|
----------------------------------|--------------------------------------|
----------------------------------|--------------------------------------|
--3-3-3-3-0-0-0-0-1-1-1-1-1-1-1-1-|--------------------------------------|
----------------------------------|----------9-9-9-9-12-12-12-12---------|
----------------------------------|--0-0-0-0---------------------8-8-8-8-|


   S  S  S  S  S  S  S  S S S S S S S S S    S S S S S S S S S S S S S S S S  
------------------------------------------|----------------------------------|
------------------------------------------|----------------------------------|
------------------------------------------|----------------------------------|
------------------------------------------|----------5-5-5-5-3-3-3-3---------|
--10-10-10-10-13-13-13-13-----------------|----------------------------------|
--------------------------8-8-8-8-5-5-5-5-|--3-3-3-3-----------------1-1-1-1-|


  S S S S S S S S S S S S S S S S    S S S S S S S S  S  S  S  S S S S S  
----------------------------------|--------------------------------------|
----------------------------------|--------------------------------------|
----------------------------------|--------------------------------------|
--3-3-3-3-0-0-0-0-1-1-1-1-1-1-1-1-|--------------------------------------|
----------------------------------|----------9-9-9-9-12-12-12-12---------|
----------------------------------|--0-0-0-0---------------------8-8-8-8-|


   S  S  S  S  S  S  S  S S S S S S S S S    S S S S S S S S S S S S S S S S  
------------------------------------------|----------------------------------|
------------------------------------------|----------------------------------|
------------------------------------------|----------------------------------|
------------------------------------------|----------5-5-5-5-3-3-3-3---------|
--10-10-10-10-13-13-13-13-----------------|----------------------------------|
--------------------------8-8-8-8-5-5-5-5-|--3-3-3-3-----------------1-1-1-1-|


  S S S S S S S S S S S S S S S S    W                   H        E  E  E  E   
----------------------------------|-------------------|-----------------------|
----------------------------------|-------------------|-----------------------|
----------------------------------|-------------------|-----------------------|
--3-3-3-3-0-0-0-0-1-1-1-1-1-1-1-1-|--0----------------|--4--------------------|
----------------------------------|--0----------------|--4--------3--4--3--1--|
----------------------------------|--0----------------|--4--------3--4--3--1--|


  W                   H        E  E  E  E     W                 
-------------------|-----------------------|-------------------|
-------------------|-----------------------|-------------------|
-------------------|-----------------------|-------------------|
--0----------------|--1--------------------|--0----------------|
--0----------------|--1--------3--4--3--1--|--0----------------|
--0----------------|--1--------3--4--3--1--|--0----------------|


  H        E  E  E  E     W                   H        E  E  E  E   
-----------------------|-------------------|-----------------------|
-----------------------|-------------------|-----------------------|
-----------------------|-------------------|-----------------------|
--4--------------------|--0----------------|--1--------------------|
--4--------3--4--3--1--|--0----------------|--1--------3--4--3--1--|
--4--------3--4--3--1--|--0----------------|--1--------3--4--3--1--|


  Q     Q    S  S  E      Q       Q     Q     S S  E      Q     
-------------------------------|-------------------------------|
-------------------------------|-------------------------------|
-------10----9~-Lb-Lpbr--------|-------------------------------|
-------------------------10----|--8----11----10-Lb-Lpbr--------|
--8----------------------------|-------------------------11----|
-------------------------------|-------------------------------|


  Q     Q    S  S  E      Q       Q     Q     S S  E      Q     
-------------------------------|-------------------------------|
-------------------------------|-------11----10-Lb-Lpbr--------|
-------10----9~-Lb-Lpbr--------|-------------------------10----|
-------------------------10----|--8----------------------------|
--8----------------------------|-------------------------------|
-------------------------------|-------------------------------|


  Q     Q    S  S  E      Q       Q     Q     S S  E      Q     
-------------------------------|-------------------------------|
-------------------------------|-------------------------------|
-------10----9~-Lb-Lpbr--------|-------------------------------|
-------------------------10----|--8----11----10-Lb-Lpbr--------|
--8----------------------------|-------------------------11----|
-------------------------------|-------------------------------|


  Q     Q    S  S  E      Q       Q     Q     S S  E      Q     
-------------------------------|-------------------------------|
-------------------------------|-------11----10-Lb-Lpbr--------|
-------10----9~-Lb-Lpbr--------|-------------------------10----|
-------------------------10----|--8----------------------------|
--8----------------------------|-------------------------------|
-------------------------------|-------------------------------|


  PM PM PM PM PM PM PM PM    PM PM PM PM PM PM PM PM  
  E  E  E  E  E  E  E  E     E  E  E  E  E  E  E  E   
--------------------------|--------------------------|
--------------------------|--------------------------|
--------------------------|--------------------------|
--------------------------|--------------------------|
--3--4--3--2--3--2--1--2--|--4--3--2--3--2--1--2--1--|
--3--4--3--2--3--2--1--2--|--4--3--2--3--2--1--2--1--|


  PM PM PM PM PM PM PM PM    PM PM PM PM PM PM PM PM  
  E  E  E  E  E  E  E  E     E  E  E  E  E  E  E  E   
--------------------------|--------------------------|
--------------------------|--------------------------|
--------------------------|--------------------------|
--------------------------|--------------------------|
--3--4--3--2--3--2--1--2--|--4--3--2--3--2--1--2--1--|
--3--4--3--2--3--2--1--2--|--4--3--2--3--2--1--2--1--|


  PM PM PM PM PM PM PM PM    PM PM PM PM PM PM PM PM  
  E  E  E  E  E  E  E  E     E  E  E  E  E  E  E  E   
--------------------------|--------------------------|
--------------------------|--------------------------|
--------------------------|--------------------------|
--------------------------|--------------------------|
--3--4--3--2--3--2--1--2--|--4--3--2--3--2--1--2--1--|
--3--4--3--2--3--2--1--2--|--4--3--2--3--2--1--2--1--|


  PM PM PM PM PM PM PM PM    PM PM PM PM PM PM PM PM    PM   PM   PM   PM    
  E  E  E  E  E  E  E  E     E  E  E  E  E  E  E  E     Q    Q    Q    Q     
--------------------------|--------------------------|----------------------|
--------------------------|--------------------------|----------------------|
--------------------------|--------------------------|----------------------|
--------------------------|--------------------------|----------------------|
--3--4--3--2--3--2--1--2--|--4--3--2--3--2--1--2--1--|--3----4----3----2----|
--3--4--3--2--3--2--1--2--|--4--3--2--3--2--1--2--1--|--3----4----3----2----|


  PM   PM   PM   PM      PM   PM   PM   PM      PM   PM   PM   PM    
  Q    Q    Q    Q       Q    Q    Q    Q       Q    Q    Q    Q     
----------------------|----------------------|----------------------|
----------------------|----------------------|----------------------|
----------------------|----------------------|----------------------|
----------------------|----------------------|----------------------|
--3----2----1----2----|--4----3----2----3----|--2----1----2----1----|
--3----2----1----2----|--4----3----2----3----|--2----1----2----1----|


  PM   PM   PM   PM      PM   PM   PM   PM      PM   PM   PM   PM    
  Q    Q    Q    Q       Q    Q    Q    Q       Q    Q    Q    Q     
----------------------|----------------------|----------------------|
----------------------|----------------------|----------------------|
----------------------|----------------------|----------------------|
----------------------|----------------------|----------------------|
--3----4----3----2----|--3----2----1----2----|--4----3----2----3----|
--3----4----3----2----|--3----2----1----2----|--4----3----2----3----|


  PM   PM   PM   PM      PM   PM   PM   PM      PM   PM   PM   PM    
  Q    Q    Q    Q       Q    Q    Q    Q       Q    Q    Q    Q     
----------------------|----------------------|----------------------|
----------------------|----------------------|----------------------|
----------------------|----------------------|----------------------|
----------------------|----------------------|----------------------|
--2----1----2----1----|--3----4----3----2----|--3----2----1----2----|
--2----1----2----1----|--3----4----3----2----|--3----2----1----2----|


  PM   PM   PM   PM      PM   PM   PM   PM      PM   PM   PM   PM    
  Q    Q    Q    Q       Q    Q    Q    Q       Q    Q    Q    Q     
----------------------|----------------------|----------------------|
----------------------|----------------------|----------------------|
----------------------|----------------------|----------------------|
----------------------|----------------------|----------------------|
--4----3----2----3----|--2----1----2----1----|--3----4----3----2----|
--4----3----2----3----|--2----1----2----1----|--3----4----3----2----|


  PM   PM   PM   PM      PM   PM   PM   PM      PM   PM   PM   PM    
  Q    Q    Q    Q       Q    Q    Q    Q       Q    Q    Q    Q     
----------------------|----------------------|----------------------|
----------------------|----------------------|----------------------|
----------------------|----------------------|----------------------|
----------------------|----------------------|----------------------|
--3----2----1----2----|--4----3----2----3----|--2----1----2----1----|
--3----2----1----2----|--4----3----2----3----|--2----1----2----1----|


  PM   PM   PM   PM      PM   PM   PM   PM      PM   PM   PM   PM    
  Q    Q    Q    Q       Q    Q    Q    Q       Q    Q    Q    Q     
----------------------|----------------------|----------------------|
----------------------|----------------------|----------------------|
----------------------|----------------------|----------------------|
----------------------|----------------------|----------------------|
--3----4----3----2----|--3----2----1----2----|--4----3----2----3----|
--3----4----3----2----|--3----2----1----2----|--4----3----2----3----|


  PM   PM   PM   PM                                           
  Q    Q    Q    Q       S S S S S S S S  S  S  S  S S S S S  
----------------------|--------------------------------------|
----------------------|--------------------------------------|
----------------------|--------------------------------------|
----------------------|--------------------------------------|
--2----1----2----1----|----------9-9-9-9-12-12-12-12---------|
--2----1----2----1----|--0-0-0-0---------------------8-8-8-8-|


   S  S  S  S  S  S  S  S S S S S S S S S    S S S S S S S S S S S S S S S S  
------------------------------------------|----------------------------------|
------------------------------------------|----------------------------------|
------------------------------------------|----------------------------------|
------------------------------------------|----------5-5-5-5-3-3-3-3---------|
--10-10-10-10-13-13-13-13-----------------|----------------------------------|
--------------------------8-8-8-8-5-5-5-5-|--3-3-3-3-----------------1-1-1-1-|


  S S S S S S S S S S S S S S S S    S S S S S S S S  S  S  S  S S S S S  
----------------------------------|--------------------------------------|
----------------------------------|--------------------------------------|
----------------------------------|--------------------------------------|
--3-3-3-3-0-0-0-0-1-1-1-1-1-1-1-1-|--------------------------------------|
----------------------------------|----------9-9-9-9-12-12-12-12---------|
----------------------------------|--0-0-0-0---------------------8-8-8-8-|


   S  S  S  S  S  S  S  S S S S S S S S S    S S S S S S S S S S S S S S S S  
------------------------------------------|----------------------------------|
------------------------------------------|----------------------------------|
------------------------------------------|----------------------------------|
------------------------------------------|----------5-5-5-5-3-3-3-3---------|
--10-10-10-10-13-13-13-13-----------------|----------------------------------|
--------------------------8-8-8-8-5-5-5-5-|--3-3-3-3-----------------1-1-1-1-|


  S S S S S S S S S S S S S S S S    S S S S S S S S  S  S  S  S S S S S  
----------------------------------|--------------------------------------|
----------------------------------|--------------------------------------|
----------------------------------|--------------------------------------|
--3-3-3-3-0-0-0-0-1-1-1-1-1-1-1-1-|--------------------------------------|
----------------------------------|----------9-9-9-9-12-12-12-12---------|
----------------------------------|--0-0-0-0---------------------8-8-8-8-|


   S  S  S  S  S  S  S  S S S S S S S S S    S S S S S S S S S S S S S S S S  
------------------------------------------|----------------------------------|
------------------------------------------|----------------------------------|
------------------------------------------|----------------------------------|
------------------------------------------|----------5-5-5-5-3-3-3-3---------|
--10-10-10-10-13-13-13-13-----------------|----------------------------------|
--------------------------8-8-8-8-5-5-5-5-|--3-3-3-3-----------------1-1-1-1-|


  S S S S S S S S S S S S S S S S    S S S S S S S S  S  S  S  S S S S S  
----------------------------------|--------------------------------------|
----------------------------------|--------------------------------------|
----------------------------------|--------------------------------------|
--3-3-3-3-0-0-0-0-1-1-1-1-1-1-1-1-|--------------------------------------|
----------------------------------|----------9-9-9-9-12-12-12-12---------|
----------------------------------|--0-0-0-0---------------------8-8-8-8-|


   S  S  S  S  S  S  S  S S S S S S S S S    S S S S S S S S S S S S S S S S  
------------------------------------------|----------------------------------|
------------------------------------------|----------------------------------|
------------------------------------------|----------------------------------|
------------------------------------------|----------5-5-5-5-3-3-3-3---------|
--10-10-10-10-13-13-13-13-----------------|----------------------------------|
--------------------------8-8-8-8-5-5-5-5-|--3-3-3-3-----------------1-1-1-1-|


  S S S S S S S S S S S S S S S S    S S S S S S S S  S  S  S  S S S S S  
----------------------------------|--------------------------------------|
----------------------------------|--------------------------------------|
----------------------------------|--------------------------------------|
--3-3-3-3-0-0-0-0-1-1-1-1-1-1-1-1-|--------------------------------------|
----------------------------------|----------9-9-9-9-12-12-12-12---------|
----------------------------------|--0-0-0-0---------------------8-8-8-8-|


   S  S  S  S  S  S  S  S S S S S S S S S    S S S S S S S S S S S S S S S S  
------------------------------------------|----------------------------------|
------------------------------------------|----------------------------------|
------------------------------------------|----------------------------------|
------------------------------------------|----------5-5-5-5-3-3-3-3---------|
--10-10-10-10-13-13-13-13-----------------|----------------------------------|
--------------------------8-8-8-8-5-5-5-5-|--3-3-3-3-----------------1-1-1-1-|


  S S S S S S S S S S S S S S S S    S S S S S S S S  S  S  S  S S S S S  
----------------------------------|--------------------------------------|
----------------------------------|--------------------------------------|
----------------------------------|--------------------------------------|
--3-3-3-3-0-0-0-0-1-1-1-1-1-1-1-1-|--------------------------------------|
----------------------------------|----------9-9-9-9-12-12-12-12---------|
----------------------------------|--0-0-0-0---------------------8-8-8-8-|


   S  S  S  S  S  S  S  S S S S S S S S S    S S S S S S S S S S S S S S S S  
------------------------------------------|----------------------------------|
------------------------------------------|----------------------------------|
------------------------------------------|----------------------------------|
------------------------------------------|----------5-5-5-5-3-3-3-3---------|
--10-10-10-10-13-13-13-13-----------------|----------------------------------|
--------------------------8-8-8-8-5-5-5-5-|--3-3-3-3-----------------1-1-1-1-|


                                     PM PM PM PM PM PM PM PM PM PM PM PM  
  S S S S S S S S S S S S S S S S    S  S  E  S  S  E  S  S  E  S  S  E   
----------------------------------|--------------------------------------|
----------------------------------|--------------------------------------|
----------------------------------|--------------------------------------|
--3-3-3-3-0-0-0-0-1-1-1-1-1-1-1-1-|--------------------------------------|
----------------------------------|--0--0--0--0--0--0--0--0--0--0--0--0--|
----------------------------------|--0--0--0--0--0--0--0--0--0--0--0--0--|


  PM PM PM PM PM PM PM PM PM PM    PM PM PM PM PM PM PM PM PM PM PM PM  
  S  S  E  S  S  E  E  E  E  E     S  S  E  S  S  E  S  S  E  S  S  E   
--------------------------------|--------------------------------------|
--------------------------------|--------------------------------------|
--------------------------------|--------------------------------------|
--------------------------------|--------------------------------------|
--4--4--4--4--4--4--3--4--3--1--|--0--0--0--0--0--0--0--0--0--0--0--0--|
--4--4--4--4--4--4--3--4--3--1--|--0--0--0--0--0--0--0--0--0--0--0--0--|


  PM PM PM PM PM PM PM PM PM PM    PM PM PM PM PM PM PM PM PM PM PM PM  
  S  S  E  S  S  E  E  E  E  E     S  S  E  S  S  E  S  S  E  S  S  E   
--------------------------------|--------------------------------------|
--------------------------------|--------------------------------------|
--------------------------------|--------------------------------------|
--------------------------------|--------------------------------------|
--1--1--1--1--1--1--3--4--3--1--|--0--0--0--0--0--0--0--0--0--0--0--0--|
--1--1--1--1--1--1--3--4--3--1--|--0--0--0--0--0--0--0--0--0--0--0--0--|


  PM PM PM PM PM PM PM PM PM PM    PM PM PM PM PM PM PM PM PM PM PM PM  
  S  S  E  S  S  E  E  E  E  E     S  S  E  S  S  E  S  S  E  S  S  E   
--------------------------------|--------------------------------------|
--------------------------------|--------------------------------------|
--------------------------------|--------------------------------------|
--------------------------------|--------------------------------------|
--4--4--4--4--4--4--3--4--3--1--|--0--0--0--0--0--0--0--0--0--0--0--0--|
--4--4--4--4--4--4--3--4--3--1--|--0--0--0--0--0--0--0--0--0--0--0--0--|


  PM PM PM PM PM PM PM PM PM PM    PM PM PM PM PM PM PM PM PM PM PM PM  
  S  S  E  S  S  E  E  E  E  E     S  S  E  S  S  E  S  S  E  S  S  E   
--------------------------------|--------------------------------------|
--------------------------------|--------------------------------------|
--------------------------------|--------------------------------------|
--------------------------------|--------------------------------------|
--1--1--1--1--1--1--3--4--3--1--|--0--0--0--0--0--0--0--0--0--0--0--0--|
--1--1--1--1--1--1--3--4--3--1--|--0--0--0--0--0--0--0--0--0--0--0--0--|


  PM PM PM PM PM PM PM PM PM PM    PM PM PM PM PM PM PM PM PM PM PM PM  
  S  S  E  S  S  E  E  E  E  E     S  S  E  S  S  E  S  S  E  S  S  E   
--------------------------------|--------------------------------------|
--------------------------------|--------------------------------------|
--------------------------------|--------------------------------------|
--------------------------------|--------------------------------------|
--4--4--4--4--4--4--3--4--3--1--|--0--0--0--0--0--0--0--0--0--0--0--0--|
--4--4--4--4--4--4--3--4--3--1--|--0--0--0--0--0--0--0--0--0--0--0--0--|


  PM PM PM PM PM PM PM PM PM PM                                             
  S  S  E  S  S  E  E  E  E  E     S S S S  S  S  S  S S S S S  S  S  S  S  
--------------------------------|------------------------------------------|
--------------------------------|------------------------------------------|
--------------------------------|----------10-10-10-10-9-9-9-9-------------|
--------------------------------|------------------------------10-10-10-10-|
--1--1--1--1--1--1--3--4--3--1--|--8-8-8-8---------------------------------|
--1--1--1--1--1--1--3--4--3--1--|------------------------------------------|


  S S S S  S  S  S  S  S  S  S  S  S  S  S  S  
----------------------------------------------|
----------------------------------------------|
----------------------------------------------|
--8-8-8-8-11-11-11-11-10-10-10-10-------------|
----------------------------------11-11-11-11-|
----------------------------------------------|


  S S S S  S  S  S  S S S S S  S  S  S  S  
------------------------------------------|
------------------------------------------|
----------10-10-10-10-9-9-9-9-------------|
------------------------------10-10-10-10-|
--8-8-8-8---------------------------------|
------------------------------------------|


  S S S S  S  S  S  S  S  S  S  S  S  S  S  S  
----------------------------------------------|
----------11-11-11-11-10-10-10-10-------------|
----------------------------------10-10-10-10-|
--8-8-8-8-------------------------------------|
----------------------------------------------|
----------------------------------------------|


  S S S S  S  S  S  S S S S S  S  S  S  S  
------------------------------------------|
------------------------------------------|
----------10-10-10-10-9-9-9-9-------------|
------------------------------10-10-10-10-|
--8-8-8-8---------------------------------|
------------------------------------------|


  S S S S  S  S  S  S  S  S  S  S  S  S  S  S  
----------------------------------------------|
----------------------------------------------|
----------------------------------------------|
--8-8-8-8-11-11-11-11-10-10-10-10-------------|
----------------------------------11-11-11-11-|
----------------------------------------------|


  S S S S  S  S  S  S S S S S  S  S  S  S  
------------------------------------------|
------------------------------------------|
----------10-10-10-10-9-9-9-9-------------|
------------------------------10-10-10-10-|
--8-8-8-8---------------------------------|
------------------------------------------|


                                                 PM PM PM PM PM PM PM PM  
  S S S S  S  S  S  S  S  S  S  S  S  S  S  S    E  E  E  E  E  E  E  E   
----------------------------------------------|--------------------------|
----------11-11-11-11-10-10-10-10-------------|--------------------------|
----------------------------------10-10-10-10-|--------------------------|
--8-8-8-8-------------------------------------|--------------------------|
----------------------------------------------|--3--4--3--2--3--2--1--2--|
----------------------------------------------|--3--4--3--2--3--2--1--2--|


  PM PM PM PM PM PM PM PM    PM PM PM PM PM PM PM PM  
  E  E  E  E  E  E  E  E     E  E  E  E  E  E  E  E   
--------------------------|--------------------------|
--------------------------|--------------------------|
--------------------------|--------------------------|
--------------------------|--------------------------|
--4--3--2--3--2--1--2--1--|--3--4--3--2--3--2--1--2--|
--4--3--2--3--2--1--2--1--|--3--4--3--2--3--2--1--2--|


  E  E  E  E  E  E  E  E     Q    H.             
--------------------------|--------------------||
--------------------------|--------------------||
--------------------------|--------------------||
--------------------------|--------------------||
--4--3-----3--2-----2--1--|--L-----------------||
--4--3-----3--2-----2--1--|--L-----------------||




Duration Legend
---------------
W - whole
H - half
Q - quarter
E - 8th
S - 16th
T - 32nd
X - 64th
. - note dotted
|-n-|  - n-tuplets


Tablature Legend
----------------
L - tied note
x - dead note
g - grace note
(n) - ghost note
> - accentuded note
NH - natural harmonic
AH - artificial harmonic
TH - tapped harmonic
SH - semi harmonic
PH - pitch harmonic
h - hammer on
p - pull off
b - bend
br - bendRelease
pb - preBend
pbr - preBendRelease
brb - bendReleaseBend
\n/ - tremolo bar dip
\n - tremolo bar dive
-/n - tremolo bar Release up
/n\ - tremolo bar inverted dip
/n - tremolo bar return
-\n - tremolo bar Release down
S - shift slide
s - legato slide
/ -  slide into from below or out of upwards
\ -  slide into from above or out of downwards
~ - vibrato
W - wide vibrato
tr - trill
TP - tremolo picking
T - tapping
S - slap
P - pop
< - fade in
^ - brush up
v - brush down
Suggest correction
Creating personal tab
Creating personal tab
You can edit any tab online and save it as your Personal.

You can edit, replace or remove any tab part or add personal notes – all changes will be seen only by you.

Personal tabs can be accessed anytime from any device, even offline.
Learn more »
Give kudos to tab author, rate the tab!
1 2 3 4 5
comments
print report bad tab
1 comment total.
0 reply
wish-to-prevail 10 Aug 28, 2010 02:06 PM

sick tab! do you have a guitar pro version? Rounding Up The Cattle?!!

guest
You may want to rate the tab now too:
select rating
Wanna post a correction for this tab? Suggest correction