Oops, an error
Loading. Please wait.

Old Marcus Garvey Live bass

1,308 views 3 this week
no commentswrite comment
1 2 3 4 5
1 last vote to show rating
add to favorites
×
Save as Personal and add changes to this tab that will be seen only by you. Learn more ›
×
You can save this tab as Personal to edit and correct it or add notes. All changes will be seen only by you. Learn more »
launch autoscroll
font size
0
reset
guitar tuner
edit
Autoscroll
slow
fast
+/-
esc
set tempo
stop
Author
-------------------------------------------------------------------------------
		  Old Marcus Garvey [Live] - Burning Spear
-------------------------------------------------------------------------------

Tabbed By : Garret.


Tuning: Standard

* This is a Live version of Old Marcus Garvey off of the CD "Live in Paris
Zenith '88" not the original recording. Also, the version of this song that I
have is only 5:57 long but other videos of this performance are around 6:17 so If the 
aren't at the correct times I apologize but If you follow
along with the song you should be able to pick it up. And finally, this song leaves a 
of room  for improvisation so make up stuff as you go and have fun

0:02 (x2)

G|---------------------------------------------------------------------------|
D|----3-5-5-5-5-3------3---3-----3-5-5-5-5-5-5-0-0-3--0-0-3------------------|
A|--5----------------5---5-----5---------------------------------------------|
E|---------------------------------------------------------------------------|

0:15 (x2)

G|---------------------------------------------------------------------------|
D|----3-5-5-5-5-3------3---3-----3-5-5-5-5-5-5-0-0-3--0----------------------|
A|--5----------------5---5-----5---------------------------------------------|
E|---------------------------------------------------------------------------|

0:29 (x2)

G|---------------------------------------------------------------------------|
D|---------------------3------------------------------3-3--------------------|
A|-------------------5----------------------------5-5------------------------|
E|--3-3-3-3-3-3-3-3-------1-3----3-3-3-3-3-3-3-3-----------3-----------------|

0:42 (x1)

G|---------------------------------------------------------------------------|
D|---------------------3-----------------------------------3-5---------------|
A|-------------------5-------------------------------333-5-------------------|
E|--3-3-3-3-3-3-3-3-------1-3----0-1-3-00-1-3-00-1-3-------------------------|

0:49 (x5)

G|---------------------------------------------------------------------------|
D|---------------------3------------------------------3-3--------------------|
A|-------------------5----------------------------5-5------------------------|
E|--3-3-3-3-3-3-3-3-------1-3----3-3-3-3-3-3-3-3-----------3-----------------|

1:21 (x1)

G|---------------------------------------------------------------------------|
D|---------------------3-----------------------------------3-5---------------|
A|-------------------5-------------------------------333-5-------------------|
E|--3-3-3-3-3-3-3-3-------1-3----0-1-3-00-1-3-00-1-3-------------------------|

1:28 (x8)

G|---------------------------------------------------------------------------|
D|---------------------3------------------------------3-3--------------------|
A|-------------------5----------------------------5-5------------------------|
E|--3-3-3-3-3-3-3-3-------1-3----3-3-3-3-3-3-3-3-----------3-----------------|

2:21 (x1)

G|---------------------------------------------------------------------------|
D|---------------------3-----------------------------------3-5---------------|
A|-------------------5-------------------------------333-5-------------------|
E|--3-3-3-3-3-3-3-3-------1-3----0-1-3-00-1-3-00-1-3-------------------------|

2:29 (x10)
G|---------------------------------------------------------------------------|
D|---------------------3------------------------------3-3--------------------|
A|-------------------5----------------------------5-5------------------------|
E|--3-3-3-3-3-3-3-3-------1-3----3-3-3-3-3-3-3-3-----------3-----------------|

3:34 (x1)

G|---------------------------------------------------------------------------|
D|---------------------3-----------------------------------------------------|
A|-------------------5-------------------------------------------------------|
E|--3-3-3-3-3-3-3-3-------1-3------------------------------------------------|

3:37 (x7)

G|------------------------------------------------------------------------------|
D|----------------------------3-5-----------------------------------------------|
A|----------------------3-3-5---------------------------------------------------|
E|--0-1-3-00-1-3-00-1-3------------0-1-3-00-1-3-00-1-3-001--1h3-----------------|

4:37 (x2)

G|---------------------------------------------------------------------------|
D|--------------------------------------------------------3-5----------------|
A|--------------------------------------------------333-5--------------------|
E|--0-1-3-00-1-3-00-1-3-00-1-3--0-1-3-00-1-3-00-1-3--------------------------|

4:50 (x1)

G|---------------------------------------------------------------------------|
D|---------------------------------------------------------------------------|
A|---------------------------------------------------------------------------|
E|--0-1-3-00-1-3-00-1-3-00-1-3--0-1-3-00-1-3-00-1-3-0--1--3------------------|

4:57 (x3)

G|---------------------------------------------------------------------------|
D|----------------------------3-5--------------------------------------------|
A|----------------------3-3-5------------------------------------------------|
E|--0-1-3-00-1-3-00-1-3------------0-1-3-00-1-3-00-1-3-00-1-3----------------|

5:17 (x1)

G|---------------------------------------------------------------------------|
D|---------------------------------------------------------------------------|
A|---------------------------------------------------------------------------|
E|--0-1-3-00-1-3-00-1-3-00-1-3---0-1-3-00-1-3-00-1-3-00-1-3------------------|

5:23 (x1)

G|---------------------------------------------------------------------------|
D|---------------------------------------------------------------------------|
A|---------------------------------------------------------------------------|
E|--0-1-3-00-1-3-00-1-3-00-1-3-----------------------------------------------|

5:26 (x1)

G|-------------------------------------------------12------------------------|
D|----------------------------3-5--------3-5h6h7/12--10p9\5------------------|
A|----------------------3-3-5--------3-5--------------------5/8--------------|
E|--0-1-3-00-1-3-00-1-3------------3-----------------------------------------|

5:34 (x2)

G|---------------------------------------------------------------------------|
D|----3-5-5-5-5-3-----3---3-----3-5-5-5-5-5-5-0-0-3--0-0-3-------------------|
A|--5---------------5---5-----5----------------------------------------------|
E|---------------------------------------------------------------------------|

5:47 (x1)

G|---------------------------------------------------------------------------|
D|---------------------------------------------------------------------------|
A|---------------------------------------------------------------------------|
E|--10-13-15-15-15-15--13---14---15\3----------------------------------------|


If you have any questions or find a mistake Just post a comment and I will try to Edit
tab.

- Garret.

------------------------------------------------------------------------------|
------------------------------------------------------------------------------|
| /  slide up
| \  slide down
| h  hammer-on
| p  pull-off
| ~  vibrato
| +  harmonic
| x  Mute note
------------------------------------------------------------------------------|
------------------------------------------------------------------------------|

            
            
Suggest correction
Creating personal tab
Creating personal tab
You can edit any tab online and save it as your Personal.

You can edit, replace or remove any tab part or add personal notes – all changes will be seen only by you.

Personal tabs can be accessed anytime from any device, even offline.
Learn more »
Give kudos to tab author, rate the tab!
1 2 3 4 5
comments
print report bad tab
guest
You may want to rate the tab now too:
select rating
Wanna post a correction for this tab? Suggest correction