Oops, an error
Loading. Please wait.

Hero Tab

217 views 1 this week
no commentswrite comment
1 2 3 4 5
3 more votes to show rating
add to favorites
launch autoscroll
font size
0
reset
how to read this tab
guitar tuner
Autoscroll
slow
fast
+/-
esc
set tempo
stop
Help us to improve Ultimate-Guitar.com Take our survey!
×
Difficulty
novice
             INTRO
Hero (intro) - Burning Tree Projekt

---------------------------------------------------

Tabbed by: Dommy
Email: domenic_trasolini@hotmail.com      

Tuning: Standard


     INTRO
Guitar 1
e|--0-12-121211p0---12-121211p0---12 121211p0---14--11~-----------|
B|---------------12------------12------------12---0---------------|
G|----------------------------------------------------------------|
D|----------------------------------------------------------------|
A|----------------------------------------------------------------|
E|----------------------------------------------------------------|

Guitar 2
e|----------------------------------------------------------------|
B|----------------------------------------------------------------|
G|------------------9--9-9-9-9-9----------------------------------|
D|----7--7-7-7-7-7--9--9-9-9-9-9--9--9-9-9-9-9--9--9-9-9-9-9------|
A|----7--7-7-7-7-7--7--7-7-7-7-7--9--9-9-9-9-9--9--9-9-9-9-9------|
D|----7--7-7-7-7-7----------------9--9-9-9-9-9--9--9-9-9-9-9------|
      d  d u d u d  d  d u d u d  d  d u d u d  d  d u d u d

| h  hammer-on
| p  pull-off
| ~  vibrato
| d  downstroke
| u  uptroke
Suggest correction
Give kudos to tab author, rate the tab!
1 2 3 4 5
comments
print report bad tab
guest
You may want to rate the tab now too:
select rating
Wanna post a correction for this tab? Suggest correction