Oops, an error
Loading. Please wait.

What Now Tab

141 views 1 this week
no commentswrite comment
1 2 3 4 5
please rate
add to favorites
launch autoscroll
font size
0
reset
how to read this tab
guitar tuner
Autoscroll
slow
fast
+/-
esc
set tempo
stop
Help us to improve Ultimate-Guitar.com Take our survey!
×
Contributor
RiRaY 1,731
---------------------------------------------------------------------
               "What Now" - Burning Tree Projekt
               
               http://www.burningtreeprojekt.com/
          http://www.purevolume.com/burningtreeprojekt
---------------------------------------------------------------------

Tabbed by: Justin Riray  [RiRaY]   
California baby! Home of sexiness!

Email: Pakman7JR@hotmail.com

     This is my first tab, I'm really a drummer and only play 
   guitar by reading tableture... so I hope this is perfect... 
   sounds perfect to me =D   This rocks hard, but its real simple.
   The hardest part is the verse, the single string stumming is a 
   pain to play fast enogh to keep up with the song's actual BPM.


Tuning: eBGDAD (Drop D)


     INTRO "Guitar 1"

e|---------12------12---12--------10------10---10-------------|
B|---9-10-----9-10----9-------7-9-----7-9----7----------------|
G|------------------------------------------------------------|
D|--------------------------------------------------   -------|
A|-------------------------------------------------    -------|
D|-------------------------------------------------    -------|
                                                    X2
e|-------9-------9----9-----------10-----10---10---    -------|
B|---5-7-----5-7---5----------7-9----7-9----7------    -------|
G|-------------------------------------------------   --------|
D|------------------------------------------------------------|
A|------------------------------------------------------------|
D|------------------------------------------------------------|


     VERSE 1 "Guitar 1"

e|------------------------------------------------------------|
B|------------------------------------------------------------|
G|------------------------2-1-----1---------------------------|
D|-------2-----2--------2-----1-----2----   ------------------|
A|-----0---0------0---------------------    ------------------|
D|---4-------4--------2---------2-------    ------------------|
                                         X2
e|--------------------------------------    ------------------|
B|-------5-----5---------2---3---5------    ------------------|
G|-----2---2------2----2---2---2---2----   -------------------|
D|---0-------0-------0----------------------------------------|
A|------------------------------------------------------------|
D|------------------------------------------------------------|
     

     VERSE 1 "Guitar 2"    (play gently)
   (This is the bassline, but sounds great on guitar)

e|------------------------------------------------------------|
B|------------------------------------------------------------|
G|------------------------------------------------------------|
D|-------------------------------------------------   --------|
A|---4x-4444x---2x-2222x---0x-0000x---2x-2222x---- X2 --------|
D|---4x-4444x---2x-2222x---0x-0000x---2x-2222x----   ---------|


     PRE-CHORUS

e|------------------------------------------------------------|
B|---------------10-10-10----------10-10-----   --------------|
G|-------9-----9-----------------9---------- X3 --------------|
D|---7-6---6-7-------------7-6-7------------   ---------------|
A|------------------------------------------------------------|
D|------------------------------------------------------------|

e|------------------------------------------------------------|
B|---------------10-10-10-------------------------------------|
G|-------9-----9----------------9-----------------------------|
D|---7-6---6-7------------7-6-7---7---------------------------|
A|------------------------------------------------------------|
D|------------------------------------------------------------|


     CHORUS

e|------------------------------------------------------------|
B|------------------------------------------------------------|
G|------------------------------------------------------------|
D|---444x-444x---222x-222x---000-000x---4444-2222----   ------|
A|---444x-444x---222x-222x---000-000x---4444-2222--- X2 ------|
D|---444x-444x---222x-222x---000-000x---4444-2222---   -------|
                                    pm  .... ....
     
     ~ VERSE 2 (same as verse 1)

     ~ PRE-CHORUS

     ~ CHORUS



     BRIDGE  (( The first 2 measures can also be VERSE 3 ))
   (There is barely any guitar for the 1st part of the bridge,
    but the bassline sounds fine on the guitar. I also added
    the bassline for the 2nd part of the bridge. 
    This bassline can be used for the whole song!)

     Bassline (also drop D)
G|------------------------------------------------------------|
D|-------------------------------------   --------------------|
A|------------------------------------ X2 --------------------|
D|--- 4~ ---- 2~ ---- 0~ ---- 2~ -----   ---------------------|

G|------------------------------------------------------------|
D|----------------------------------------------   -----------|
A|----4--4-4---2--2-2---0--0-0---2--2-2-------- X6 -----------|
D|--44-44-4--22-22-2--00-00-0--22-22-2---------   ------------|
     

   Guitar
e|-------------- 7~ ------------------------------------------|
B|------------ x -------              ------------------------|
G|--- 4~ --- 4~ -------  stay vibrato  -----------------------|
D|--- 4~ -------------  for 2 measures  ----------------------|
A|--- 4~ --------------                -----------------------|
D|--- 4~ -----------------------------------------------------|


e|---------12------12---12--------10------10---10-------------|
B|---9-10-----9-10----9-------7-9-----7-9----7----------------|
G|------------------------------------------------------------|
D|------------------------------------------------------   ---|
A|-----------------------------------------------------    ---|
D|-----------------------------------------------------    ---|
                                                        X6  
e|-------9-----9----9-------------10-----10---10-------    ---|
B|---5-7-----5----5-----------7-9----7-9----7----------    ---|
G|-----------------------------------------------------   ----|
D|------------------------------------------------------------|
A|------------------------------------------------------------|
D|------------------------------------------------------------|

     ~ Chorus x2

     E N D


| .  palm mute
| ~  vibrato
| x  Mute note

===============================================================
Suggest correction new What's this?
You can suggest a correction to this tab. Community and Mods will review your correction and vote to approve or reject it.
comments
We did not receive enough feedback on this tab! Please rate:
print report bad tab
1 2 3 4 5
guest
You may want to rate the tab now too:
select rating
Please do not post tabs as comments. Select "correction" instead!