Oops, an error
Loading. Please wait.

Take One Away chords

115 views 1 this week
no commentswrite comment
1 2 3 4 5
2 more votes to show rating
add to favorites
×
Save as Personal and add changes to this tab that will be seen only by you. Learn more ›
×
You can save this tab as Personal to edit and correct it or add notes. All changes will be seen only by you. Learn more »
launch autoscroll
font size
0
reset
transpose
0
reset
display chords
guitar tuner
edit
Autoscroll
slow
fast
+/-
esc
set tempo
stop
Strumming
There is no strumming pattern for this song yet. and get +5 IQ
[Intro]
e|-------0--------------------------------------------------------|
B|---------3---1--0-----------------------------------------------|
G|-----2-------2--0--0-2------------------------------------------| (x2)
D|---2------------------------------------------------------------|     
A|-0-----------0--0-----------------------------------------------|
E|----------------------------------------------------------------|

[Verse 1]
Am                            F 
One cloudless morning was it day or night
                G
The sun and the moon were bright
C         D
Take one away
Am                               F
Two holy sisters lost in the desert dry
                        G  
From the weight the old mule will die
C         D
Take one away

[Chorus]
C                              G
Oh mama sit down, I think it's time you knew
                F
The day I first came to you
              C    G
I was dead on arr-ival
C                                  G
And now I can hear you pleading on the radio
                     F
Mama I've joined the church you know
                      C  G 
I've been passing out bi-bles
C         D
Take one away

e|-------0--------------------------------------------------------|
B|---------3---1--0-----------------------------------------------|
G|-----2-------2--0--0-2------------------------------------------| 
D|---2------------------------------------------------------------|     
A|-0-----------0--0-----------------------------------------------|
E|----------------------------------------------------------------|

Am
Three babies conceived
               F
She couldn't afford them all
              G
The curtain begins to fall
C         D
Take one away
Am
Five o'clock in the morning... 
           F
Ah just an hour ago
                     G
She might have been alive you know
         C         D
But they took one away

[Chorus]
C                              G
Oh mama sit down, I think it's time you knew
                F
The day I first came to you
              C    G
I was dead on arr-ival
C                                  G
And now I can hear you pleading on the radio
                     F
Mama I've joined the church you know
                      C  G 
I've been passing out bi-bles
C         D
Take one away
C                              G
Oh mama sit down, I think it's time you knew
                F
The day I first came to you
              C    G
I was dead on arr-ival
C                                  G
And now I can hear you pleading on the radio
                     F
Mama I've joined the church you know
                      C  G 
I've been passing out bi-bles
C         D
Take one away
C         D    
Take one away
C         D    
Take one away
C         D    
Take one away

                                               (End on Am)
e|-------0-----------------------------------------0---------------|
B|---------3---1--0--------------------------------1---------------|
G|-----2-------2--0--0-2---------------------------2---------------| (x3)
D|---2---------------------------------------------2---------------|     
A|-0-----------0--0--------------------------------0---------------|
E|-----------------------------------------------------------------|

            
            
Suggest correction
Creating personal tab
Creating personal tab
You can edit any tab online and save it as your Personal.

You can edit, replace or remove any tab part or add personal notes – all changes will be seen only by you.

Personal tabs can be accessed anytime from any device, even offline.
Learn more »
Give kudos to tab author, rate the tab!
1 2 3 4 5
comments
print report bad tab
guest
You may want to rate the tab now too:
select rating
Wanna post a correction for this tab? Suggest correction