Oops, an error
Loading. Please wait.

Hurting Not Helping bass

version 1
version 1

Whole song

Interactive

352 views 3 this week
no commentswrite comment
1 2 3 4 5
3 more votes to show rating
add to favorites
×
Save as Personal and add changes to this tab that will be seen only by you. Learn more ›
×
You can save this tab as Personal to edit and correct it or add notes. All changes will be seen only by you. Learn more »
launch autoscroll
font size
0
reset
guitar tuner
edit
Autoscroll
slow
fast
+/-
esc
set tempo
stop
       Bury Your Dead - Hurting Not Helping
                It's Nothing Personal
                       Album
Tuning :AEAD
Hope you like it, it's a rough draft, a little part may be missing but I hope it's all there.

Intro (Not Active)
D--------------------------------------------|
A--------------------------------------------|
E--------------------------------------------|
A--------------------------------------------|

Guitar phases in.
Riff 1
D-----------------------------------------------------------|
A-----------------------------------------------------------|
E----------3h6---3h6------------------3h6---3h6---------3h5-|
A-0-0-0-0------0-----0-0-0-0-0-0-0-0------0-----0-0-0-0-----|


Riff 2 Bass ( Not Active )
D-----------------------------------------------------------|
A-----------------------------------------------------------|
E-----------------------------------------------------------|
A-----------------------------------------------------------|


Riff 3  1,2,3, Go.  (Main)
D-------------------------------------------------------------------------|
A-------------------------------------------------------------------------|
E-------------------------------------------------------------------------|
A-0-0-6-0-6-0-0-6-0-0-0-0-0--1-0-0---0-0-6-0-6-0-0-6-0-0-0-0--0-0-1-0-0-3-|


Riff 2 Bass (Not Active)
D------------------------------------------|
A------------------------------------------|
E------------------------------------------|
A------------------------------------------|


Riff 4 (Guitar solo starts)
D------------------------------------------------------------------------|
A------------------------------------------------------------------------|
E------------------------------------------------------------------------|
A-3--3--3--3--3--3--3--3--3--5-5-5-5--8--0--0--0--0--0--0--5--3--3--3--3-|

Riff 5
D----------------------------------------------|
A----------------------------------------------|
E----------------------------------------------|
A-0-0-0-0--0-0--0-0--0--0-0-0-0-0-0--0-0--0-0--|


Repeat riffs 2-5 As many times as neccisary.

Intro Riff.
D-----------------------------------------------------------------|
E-----------------------------------------------------------------|
A---------3h6---3h6------------------------3h6----3h6---------3h5-|
E-0-0-0-0-----0-----0-0-0-0-0-0-0--0-0-0-0------0-----0-0-0-0-----|

Riff 6 Ending
D------------------------------|
A------------------------------|
E-------------------13------10-|
A-0-0-0-0-0-0---0-0----0-0-----|

That's it, all the riffs laid out. It's a very easy song.
As the first bass version of this song, I think it's pretty great. Hope you enjoy!
Whiplash2343@aol.com
DylanCapps94@yahoo.com
Suggest correction
Creating personal tab
Creating personal tab
You can edit any tab online and save it as your Personal.

You can edit, replace or remove any tab part or add personal notes – all changes will be seen only by you.

Personal tabs can be accessed anytime from any device, even offline.
Learn more »
Give kudos to tab author, rate the tab!
1 2 3 4 5
comments
print report bad tab
guest
You may want to rate the tab now too:
select rating
Wanna post a correction for this tab? Suggest correction