Oops, an error
Loading. Please wait.

Magnolia Tab

version 2
version 2

Whole song

Interactive

321 views 3 this week
no commentswrite comment
1 2 3 4 5
1 last vote to show rating
add to favorites
launch autoscroll
font size
0
reset
how to read this tab
guitar tuner
Autoscroll
slow
fast
+/-
esc
set tempo
stop
Help us to improve Ultimate-Guitar.com Take our survey!
×
Author
Tuning
A# F A# D# G C
BURY YOUR DEAD

MAGNOLIA

A#-F-A#-D#-G-C


TABBED BY andherembrace





-----------------------------------------------------------------|
-----------------------------------------------------------------|
-----------------------------------------------------------------|
-----------5---5-7---------7-7-7-7---------7-7-7-7---------------|
-8-7---3---3---3-5---------8-8-8-8---------8-8-8-8-7-7-7-7-8-8-8-|
-8-7-0-3-0---0-----0-0-0-0---------0-0-0-0---------7-7-7-7/8-8-8-|
     *   *   *     * * * *         * * * *                     
-----------------------------------------------------------------|
-----------------------------------------------------------------|
-----------------------------------------------------------------|
-----------5---5-7---------7-7-7-7---------7-7-7-7---------------|
-8-7---3---3---3-5---------8-8-8-8---------8-8-8-8-7-7-7-7/8-8-8-|
-8-7-0-3-0---0-----0-0-0-0---------0-0-0-0---------7-7-7-7/8-8-8-|
     *   *   *     * * * *         * * * *                     

------------------------------------------------------------------|
------------------------------------------------------------------|
------------------------------------------------------------------|
-----------5---5-7---------7-7-7-7----------7-7-7-7---------------|
-8-7---3---3---3-5---------8-8-8-8----------8-8-8-8-7-7-7-7/8-8-8-|
-8-7-0-3-0---0-----0-0-0-0---------0000-0-0---------7-7-7-7/8-8-8-|
     *   *   *     * *   *         ****   *                     
-----------------------------------------------------------------|
-----------------------------------------------------------------|
-----------------------------------------------------------------|
-----------5---5-7---------7-7-7-7---------7-7-7-7---------------|
-8-7---3---3---3-5---------8-8-8-8---------8-8-8-8-7-7-7-7/8-8-8-|
-8-7-0-3-0---0-----0-0-0-0---------0-0-0-0---------7-7-7-7/8-8-8-|
     *   *   *     * *   *         * *   *              

----------------------------------|
----------------------------------|
----------------------------------|
-----------5-5-5------------------|
-8-7---3---3-3-3-6-5-4-3-5-4-3-2--|
-8-7-0-3-0-------6-5-4-3-5-4-3-2--|
     *   *       * * * * * * * * 



0:24

--------------------------------------------------------------|
--------------------------------------------------------------|
--------------------------------------------------------------|
-------------------------_-----------------------------_------|
------------------------/ \---------------------------/ \--/6-|
-4-0-0-0-0-0-|-0-0-0-0-3-4-3/6--0-0-0-0-0-|--0-0-0-0-3-4-3----|
   * *   *       *   *          * *   *        *   *         

--------------------------------------------------|
--------------------------------------------------|
--------------------------------------------------|
----------------------------_---------------------|
---------------------------/ \--/6-----------12---|
-0-0-0-0-0-0-0-0-0000-0-0-3-4-3----0-0-0-0-0-12-\-|
 * *   *   *     ****   *          * *   *            



-----------------------------------------------------------------|
-----------------------------------------------------------------|
-----------------------------------------------------------------|
-----------5---5-7---------7-7-7-7---------7-7-7-7---------------|
-8-7---3---3---3-5---------8-8-8-8---------8-8-8-8-7-7-7-7-8-8-8-|
-8-7-0-3-0---0-----0-0-0-0---------0-0-0-0---------7-7-7-7/8-8-8-|
     *   *   *     * * * *         * * * *                     
-----------------------------------------------------------------|
-----------------------------------------------------------------|
-----------------------------------------------------------------|
-----------5---5-7---------7-7-7-7---------7-7-7-7---------------|
-8-7---3---3---3-5---------8-8-8-8---------8-8-8-8-7-7-7-7/8-8-8-|
-8-7-0-3-0---0-----0-0-0-0---------0-0-0-0---------7-7-7-7/8-8-8-|
     *   *   *     * * * *         * * * *                     

------------------------------------------------------------------|
------------------------------------------------------------------|
------------------------------------------------------------------|
-----------5---5-7---------7-7-7-7----------7-7-7-7---------------|
-8-7---3---3---3-5---------8-8-8-8----------8-8-8-8-7-7-7-7/8-8-8-|
-8-7-0-3-0---0-----0-0-0-0---------0000-0-0---------7-7-7-7/8-8-8-|
     *   *   *     * *   *         ****   *                     
-----------------------------------------------------------------|
-----------------------------------------------------------------|
-----------------------------------------------------------------|
-----------5---5-7---------7-7-7-7---------7-7-7-7---------------|
-8-7---3---3---3-5---------8-8-8-8---------8-8-8-8-7-7-7-7/8-8-8-|
-8-7-0-3-0---0-----0-0-0-0---------0-0-0-0---------7-7-7-7/8-8-8-|
     *   *   *     * *   *         * *   *              

---------------------------------------------------|
---------------------------------------------------|
-----------5-5-------------------------------------|
-8-7---3---3-3--6-5-4-3-5-4-3-2-5-4-3-2-4-3-2-1----|
-8-7-0-3-0------6-5-4-3-5-4-3-2-5-4-3-2-4-3-2-1----|
     *   *      * * * * * * * * * * * * * * * *


0:59

--------------------------------------------------------------|
--------------------------------------------------------------|
--------------------------------------------------------------|
-------------------------_-----------------------------_------|
------------------------/ \---------------------------/ \--/6-|
-4-0-0-0-0-0-|-0-0-0-0-3-4-3/6--0-0-0-0-0-|--0-0-0-0-3-4-3----|
   * *   *       *   *          * *   *        *   *         

--------------------------------------------------------------|
--------------------------------------------------------------|
--------------------------------------------------------------|
----------------------------_-------------------------------5-|
---------------------------/ \--/6-----------12---8-7---3---3-|
-0-0-0-0-0-0-0-0-0000-0-0-3-4-3----0-0-0-0-0-12-\-8-7-0-3-0---|
 * *   *   *     ****   *          * *   *            *   *




--------------------------------------------------------------------|
--------------------------------------------------------------------|
--------------------------------------------------------------------|
--------------------------------------------------------------------|
-----------------------------------------------------6-5-4-3-5-4-3-2|
-0-00-0-6-0-5-0-0-0-00-0-6-0-5-0-0-0-00-0-6-0-5-0000-6-5-4-3-5-4-3-2|
   **     *   *     **     *   *     **     *   **** * * * * * * * *

--------------------------------------------------------------------|
--------------------------------------------------------------------|
--------------------------------------------------------------------|
--------------------------------------------------------------------|
-----------------------------------------------------6-5-4-3-5-4-3-2|
-0-00-0-6-0-5-0-0-0-00-0-6-0-5-0-0-0-00-0-6-0-5-0000-6-5-4-3-5-4-3-2|
   **     *   *     **     *   *     **     *   **** * * * * * * * *

L
-----------------------------------------------------------------|
-----------------------------------------------------------------|
-----------------------------------------------------------------|
-----------------------------------------------------------------|
---0---1---0---0---0---1---0---0---0---1---0-----6-5-4-3-5-4-3-2-|
-0-0-0-1-0-0-0-0-0-0-0-1-0-0-0-0-0-0-0-1-0-0-0-0-6-5-4-3-5-4-3-2-|
 *   *   *   *   *   *   *   *   *   *   *   * * * * * * * * * * 
R
-----------------------------------------------------------------|
-----------------------------------------------------------------|
-----------------------------------------------------------------|
-----------------------------------------------------------------|
---5---6---5---5---5---6---5---5---5---6---5-----6-5-4-3-5-4-3-2-|
-0-7-0-8-0-7-0-7-0-7-0-8-0-7-0-7-0-7-0-8-0-7-0-0-6-5-4-3-5-4-3-2-|
 *   *   *   *   *   *   *   *   *   *   *   * * * * * * * * * * 

L
-----------------------------------------------------------------|
-----------------------------------------------------------------|
-----------------------------------------------------------------|
-----------------------------------------------------------------|
---0---1---0---0---0---1---0---0---0---1---0-----6-5-4-3-5-4-3-2-|
-0-0-0-1-0-0-0-0-0-0-0-1-0-0-0-0-0-0-0-1-0-0-0-0-6-5-4-3-5-4-3-2-|
 *   *   *   *   *   *   *   *   *   *   *   * * * * * * * * * * 
R
-----------------------------------------------------------------|
-----------------------------------------------------------------|
-----------------------------------------------------------------|
-----------------------------------------------------------------|
---5---6---5---5---5---6---5---5---5---6---5-----6-5-4-3-5-4-3-2-|
-0-7-0-8-0-7-0-7-0-7-0-8-0-7-0-7-0-7-0-8-0-7-0-0-6-5-4-3-5-4-3-2-|
 *   *   *   *   *   *   *   *   *   *   *   * * * * * * * * * * 



1:31

L
-----------------------------------------------------------------|
-----------------------------------------------------------------|
-----------------------------------------------------------------|
-----------------7-7-7-7-7-7-7-7-7-------------------------------|
-0-00-00-0-00-00-8-8-8-8-8-8-8-8-8-7-7-7-7-7-7-7-7-8-8-8-8-8-8-8-|
-0-00-00-0-00-00-------------------7-7-7-7-7-7-7-7-8-8-8-8-8-8-8-|
 * ** ** * ** **
R
-----------------------------------------------------------------|
-----------------------------------------------------------------|
----------------101010101010101010-------------------------------|
-----------------7-7-7-7-7-7-7-7-7101010101010101012121212121212-|
-0-00-00-0-00-00-8-8-8-8-8-8-8-8-8-7-7-7-7-7-7-7-7-8-8-8-8-8-8-8-|
-0-00-00-0-00-00-------------------7-7-7-7-7-7-7-7-8-8-8-8-8-8-8-|
 * ** ** * ** **

L
-----------------------------------------------------------------|
-----------------------------------------------------------------|
-----------------------------------------------------------------|
-----------------7-7-7-7-7-7-7-7-7-------------------------------|
-0-00-00-0-00-00-8-8-8-8-8-8-8-8-8-7-7-7-7-7-7-7-7-8-8-8-8-8-8-8-|
-0-00-00-0-00-00-------------------7-7-7-7-7-7-7-7-8-8-8-8-8-8-8-|
 * ** ** * ** **
R
-----------------------------------------------------------------|
-----------------------------------------------------------------|
----------------101010101010101010-------------------------------|
-----------------7-7-7-7-7-7-7-7-7101010101010101012121212121212-|
-0-00-00-0-00-00-8-8-8-8-8-8-8-8-8-7-7-7-7-7-7-7-7-8-8-8-8-8-8-8-|
-0-00-00-0-00-00-------------------7-7-7-7-7-7-7-7-8-8-8-8-8-8-8-|
 * ** ** * ** **



1:43

--------------------------------------------------------------------|
--------------------------------------------------------------------|
--------------------------------------------------------------------|
--------------------------------------------------------------------|
-----------------------------------------------------6-5-4-3-5-4-3-2|
-0-00-0-6-0-5-0-0-0-00-0-6-0-5-0-0-0-00-0-6-0-5-0000-6-5-4-3-5-4-3-2|
   **     *   *     **     *   *     **     *   **** * * * * * * * *

--------------------------------------------------------------------|
--------------------------------------------------------------------|
--------------------------------------------------------------------|
--------------------------------------------------------------------|
-----------------------------------------------------6-5-4-3-5-4-3-2|
-0-00-0-6-0-5-0-0-0-00-0-6-0-5-0-0-0-00-0-6-0-5-0000-6-5-4-3-5-4-3-2|
   **     *   *     **     *   *     **     *   **** * * * * * * * *

L
-----------------------------------------------------------------|
-----------------------------------------------------------------|
-----------------------------------------------------------------|
-----------------------------------------------------------------|
---0---1---0---0---0---1---0---0---0---1---0-----6-5-4-3-5-4-3-2-|
-0-0-0-1-0-0-0-0-0-0-0-1-0-0-0-0-0-0-0-1-0-0-0-0-6-5-4-3-5-4-3-2-|
 *   *   *   *   *   *   *   *   *   *   *   * * * * * * * * * * 
R
-----------------------------------------------------------------|
-----------------------------------------------------------------|
-----------------------------------------------------------------|
-----------------------------------------------------------------|
---5---6---5---5---5---6---5---5---5---6---5-----6-5-4-3-5-4-3-2-|
-0-7-0-8-0-7-0-7-0-7-0-8-0-7-0-7-0-7-0-8-0-7-0-0-6-5-4-3-5-4-3-2-|
 *   *   *   *   *   *   *   *   *   *   *   * * * * * * * * * * 

L
-----------------------------------------------------------------|
-----------------------------------------------------------------|
-----------------------------------------------------------------|
-----------------------------------------------------------------|
---0---1---0---0---0---1---0---0---0---1---0-----6-5-4-3-5-4-3-2-|
-0-0-0-1-0-0-0-0-0-0-0-1-0-0-0-0-0-0-0-1-0-0-0-0-6-5-4-3-5-4-3-2-|
 *   *   *   *   *   *   *   *   *   *   *   * * * * * * * * * * 
R
-----------------------------------------------------------------|
-----------------------------------------------------------------|
-----------------------------------------------------------------|
-----------------------------------------------------------------|
---5---6---5---5---5---6---5---5---5---6---5-----6-5-4-3-5-4-3-2-|
-0-7-0-8-0-7-0-7-0-7-0-8-0-7-0-7-0-7-0-8-0-7-0-0-6-5-4-3-5-4-3-2-|
 *   *   *   *   *   *   *   *   *   *   *   * * * * * * * * * * 




L
-----------------------------------------------------------------|
-----------------------------------------------------------------|
-----------------------------------------------------------------|
-----------------7-7-7-7-7-7-7-7-7-------------------------------|
-0-00-00-0-00-00-8-8-8-8-8-8-8-8-8-7-7-7-7-7-7-7-7-8-8-8-8-8-8-8-|
-0-00-00-0-00-00-------------------7-7-7-7-7-7-7-7-8-8-8-8-8-8-8-|
 * ** ** * ** **
R
-----------------------------------------------------------------|
-----------------------------------------------------------------|
----------------101010101010101010-------------------------------|
-----------------7-7-7-7-7-7-7-7-7101010101010101012121212121212-|
-0-00-00-0-00-00-8-8-8-8-8-8-8-8-8-7-7-7-7-7-7-7-7-8-8-8-8-8-8-8-|
-0-00-00-0-00-00-------------------7-7-7-7-7-7-7-7-8-8-8-8-8-8-8-|
 * ** ** * ** **

L
-----------------------------------------------------------------|
-----------------------------------------------------------------|
-----------------------------------------------------------------|
-----------------7-7-7-7-7-7-7-7-7-------------------------------|
-0-00-00-0-00-00-8-8-8-8-8-8-8-8-8-7-7-7-7-7-7-7-7-8-8-8-8-8-8-8-|
-0-00-00-0-00-00-------------------7-7-7-7-7-7-7-7-8-8-8-8-8-8-8-|
 * ** ** * ** **
R
-----------------------------------------------------------------|
-----------------------------------------------------------------|
----------------101010101010101010-------------------------------|
-----------------7-7-7-7-7-7-7-7-7101010101010101012121212121212-|
-0-00-00-0-00-00-8-8-8-8-8-8-8-8-8-7-7-7-7-7-7-7-7-8-8-8-8-8-8-8-|
-0-00-00-0-00-00-------------------7-7-7-7-7-7-7-7-8-8-8-8-8-8-8-|
 * ** ** * ** **



-----------------------------------------|
-----------------------------------------|
-----------------------------------------|
-----------------------------------------|
-0000-00--0000-00---0-0-0-0-0-0-0-0-0-0--|
-0000-00--0000-00---0-0-0-0-0-0-0-0-0-0--|
 **** **  **** **   * * * * * * * * * *


-----------------------------------------------------------------|
-----------------------------------------------------------------|
-----------------------------------------------------------------|
-----------------------------------------------------------------|
-0000-00-0000-00-0-00-00-0-00-00-0000-00-0000-00-0-00-00-0-00-00-|
-0000-00-0000-00-0-00-00-0-00-00-0000-00-0000-00-0-00-00-0-00-00-|
****************************************************************

------------------------------------------------|
------------------------------------------------|
------------------------------------------------|
------------------------------------------------|
-0000-00-0000-00-0-00-00-0-00-00-0000-00-0000-00|
-0000-00-0000-00-0-00-00-0-00-00-0000-00-0000-00|
************************************************


-------------------------------------------------------------------|
-------------------------------------------------------------------|
-------------------------------------------------------------------|
-------------------------------------------------------------------|
--0-00-00---00-00--0000-00--00-00--0-00-00---00-00--0000-00-0000-\-|
--0-00-00---00-00--0000-00--00-00--0-00-00---00-00--0000-00-0000-\-|
*****************************************************************

----------------------------------------------------------------------|
----------------------------------------------------------------------|
----------------------------------------------------------------------|
----------------------------------------------------------------------|
--0-00-00---00-00--0000-00--00-00--0-00-00---00-00--0000-00-0000-00---|
--0-00-00---00-00--0000-00--00-00--0-00-00---00-00--0000-00-0000-00---|
*********************************************************************
Suggest correction
Give kudos to tab author, rate the tab!
1 2 3 4 5
comments
print report bad tab
guest
You may want to rate the tab now too:
select rating
Wanna post a correction for this tab? Suggest correction