Oops, an error
Loading. Please wait.

Crying Orc Tab

version 2
version 2

Whole song

12,853 views 24 this week
2 commentsread comments
1 2 3 4 5
x 13
add to favorites
launch autoscroll
font size
0
reset
how to read this tab
guitar tuner
×
Best way to learn
"Crying Orc"
Autoscroll
slow
fast
+/-
esc
set tempo
stop
Band:  Burzum
Album: Burzum
Song:  The crying orc

      
h  - hammer on           


Tunning E A D G B E

I saw this was done allready, but I think my version is more correct.
I tried to tab the rythm in the song to make it even easyer to play, 
but you will have to listen to the song to get it 100% right.

Guitar1 plays this riff through the whole song(10 times)
|-------------------------------------------------------------------|
|-------------------------------------------------------------------|
|-------------------------------------------------------------------|
|----6-5-----3------6-----------------------------------------------|
|-8-------6----4------3h4--6----------------------------------------|
|-----------------4-------------------------------------------------|


Guitar2 comes in the third time and plays 4 times. 
Play variation 1 and 2 every other time... 

Variation1(1 and 3 time)
|--------------------11---------------------------------------------|
|-----9-8-----6-8-9-----9--8h9--8-----------------------------------|
|-10-------8--------------------------------------------------------|
|-------------------------------------------------------------------|
|-------------------------------------------------------------------|
|-------------------------------------------------------------------|

Variation2(2 and 4 time)
|--------------------11---------------------------------------------|
|-----9-8-----6-8-9-----9--8h9--11----------------------------------|
|-10-------8--------------------------------------------------------|
|-------------------------------------------------------------------|
|-------------------------------------------------------------------|
|-------------------------------------------------------------------|

...and end with the note showed below after playing the riff above.

|----------|
|----------|
|-10-------|
|----------|
|----------|
|----------|
Let the note ring out as long as your guitars sustain allows you, while
guitar 1 continiue playing his riff for a few more rounds...
Suggest correction
comments
print report bad tab
2 comments total.
0 reply
toxicvoid 10 Jul 03, 2010 11:23 AM

The second and third note should be 11 - 10 (Guitar 1).
Thanks.

0 reply
SumFX 2,564 Jun 05, 2011 07:23 AM

The Main Riff should be:
|------------------------------|
|------------------------------|
|---6-5------------------------|
|------------3------6----------|
|-8-------6----4------3h4--6---|
|-----------------4------------|

But it was obviously a typo on your part so i can't blame you :)

guest
You may want to rate the tab now too:
select rating
Wanna post a correction for this tab? Suggest correction