Oops, an error
Loading. Please wait.

En Ring Til A Herske tab

version 2
version 2

Whole song

  • Intro uses chords that are easier and more natural to play.

Interactive

by Burzum
58 views 1 this week
no commentswrite comment
1 2 3 4 5
3 more votes to show rating
add to favorites
×
Save as Personal and add changes to this tab that will be seen only by you. Learn more ›
×
You can save this tab as Personal to edit and correct it or add notes. All changes will be seen only by you. Learn more »
launch autoscroll
font size
0
reset
how to read this tab
guitar tuner
edit
Autoscroll
slow
fast
+/-
esc
set tempo
stop
Author
Difficulty
About this tab version
Intro uses chords that are easier and more natural to play. Was this info helpful? Yes No
[Riff 1]                     
e|-----------------------------------|-----------------------------------|
B|-----------------------------------|-----------------------------------|
G|-----------------------------------|-----------------------------------|
D|-9-------5-------9-----4---/3-3-/2-|-9-------5-------9-----4---/5-5-/2-|
A|-7-------3-------7-----4---/3-3-/2-|-7-------3-------7-----4---/5-5-/2-|
E|-0-------0-------0-----2---/1-1-/0-|-0-------0-------0-----2---/3-3-/0-|


 
e|-----------------------------------|-----------------------------------|
B|-----------------------------------|-----------------------------------|
G|-----------------------------------|-----------------------------------|
D|-9-------5-------9-----4---/3-3-/2-|-9-------5-------9-----4---/5-5-/2-|
A|-7-------3-------7-----4---/3-3-/2-|-7-------3-------7-----4---/5-5-/2-|
E|-0-------0-------0-----2---/1-1-/0-|-0-------0-------0-----2---/3-3-/0-|    

[Riff 1b]               
e|-----------------------------------|-----------------------------------|
B|-----------------------------------|-----------------------------------|
G|-----------------------------------|-----------------------------------|
D|-9-------5-------9-----4---/3-3-/2-|-9-------5-------9-----4---/5-5-/2-|
A|-7-------3-------7-----4---/3-3-/2-|-7-------3-------7-----4---/5-5-/2-|
E|-0---0-0-0---0-0-0---0-2---/1-1-/0-|-0---0-0-0---0-0-0---0-2---/3-3-/0-|
      . .     . .     .                    . .     . .     . 


e|-----------------------------------|-----------------------------------|
B|-----------------------------------|-----------------------------------|
G|-----------------------------------|-----------------------------------|
D|-9-------5-------9-----4---/3-3-/2-|-9-------5-------9-----4---/5-5-/2-|
A|-7-------3-------7-----4---/3-3-/2-|-7-------3-------7-----4---/5-5-/2-|
E|-0---0-0-0---0-0-0---0-2---/1-1-/0-|-0---0-0-0---0-0-0---0-2---/3-3-/0-|
      . .     . .     .                    . .     . .     . 

[Riff 2] 
e|-----------------------------------|-----------------------------------|
B|-----------------------------------|-----------------------------------|
G|-----------------------------------|-----------------------------------|
D|-2-----3-3---2---2-----4---/5-5-/2-|-2-----3-3---2---2-----4---/5-5-/2-|
A|-2-----3-3---2---2-----4---/5-5-/2-|-2-----3-3---2---2-----4---/5-5-/2-|
E|-0---0-1-1-0-0---0---0-2---/3-3-/0-|-0---0-1-1-0-0---0---0-2---/3-3-/0-|
       .     .         .                   .     .         .


e|-----------------------------------|-----------------------------------|
B|-----------------------------------|-----------------------------------|
G|-----------------------------------|-----------------------------------|
D|-2-----3-3---2---2-----4---/5-5-/2-|-2-----3-3---2---2-----4---/5-5-/2-|
A|-2-----3-3---2---2-----4---/5-5-/2-|-2-----3-3---2---2-----4---/5-5-/2-|
E|-0---0-1-1-0-0---0---0-2---/3-3-/0-|-0---0-1-1-0-0---0---0-2---/3-3-/0-|
       .     .         .                   .     .         .


e|-----------------------------------|-----------------------------------|
B|-----------------------------------|-----------------------------------|
G|-----------------------------------|-----------------------------------|
D|-2-----3-3---2---2-----4---/5-5-/2-|-2-----3-3---2---2-----4---/5-5-/2-|
A|-2-----3-3---2---2-----4---/5-5-/2-|-2-----3-3---2---2-----4---/5-5-/2-|
E|-0---0-1-1-0-0---0---0-2---/3-3-/0-|-0---0-1-1-0-0---0---0-2---/3-3-/0-|
       .     .         .                   .     .         .


e|-----------------------------------|-----------------------------------|
B|-----------------------------------|-----------------------------------|
G|-----------------------------------|-----------------------------------|
D|-2-----3-3---2---2-----4---/5-5-/2-|-2-----3-3---2---2-----4---/5-5-/2-|
A|-2-----3-3---2---2-----4---/5-5-/2-|-2-----3-3---2---2-----4---/5-5-/2-|
E|-0---0-1-1-0-0---0---0-2---/3-3-/0-|-0---0-1-1-0-0---0---0-2---/3-3-/0-|
       .     .         .                   .     .         .


e|-----------------------------------|-----------------------------------|
B|-----------------------------------|-----------------------------------|
G|-----------------------------------|-----------------------------------|
D|-2-----3-3---2---2-----4---/5-5-/2-|-2-----3-3---2---2-----4---/5-5-/2-|
A|-2-----3-3---2---2-----4---/5-5-/2-|-2-----3-3---2---2-----4---/5-5-/2-|
E|-0---0-1-1-0-0---0---0-2---/3-3-/0-|-0---0-1-1-0-0---0---0-2---/3-3-/0-|
       .     .         .                   .     .         .


e|-----------------------------------|-----------------------------------|
B|-----------------------------------|-----------------------------------|
G|-----------------------------------|-----------------------------------|
D|-2-----3-3---2---2-----4---/5-5-/2-|-2-----3-3---2---2-----4---/5-5-/2-|
A|-2-----3-3---2---2-----4---/5-5-/2-|-2-----3-3---2---2-----4---/5-5-/2-|
E|-0---0-1-1-0-0---0---0-2---/3-3-/0-|-0---0-1-1-0-0---0---0-2---/3-3-/0-|
       .     .         .                   .     .         .

[Riff 1]                    
e|-----------------------------------|-----------------------------------|
B|-----------------------------------|-----------------------------------|
G|-----------------------------------|-----------------------------------|
D|-9-------5-------9-----4---/3-3-/2-|-9-------5-------9-----4---/5-5-/2-|
A|-7-------3-------7-----4---/3-3-/2-|-7-------3-------7-----4---/5-5-/2-|
E|-0-------0-------0-----2---/1-1-/0-|-0-------0-------0-----2---/3-3-/0-|



e|-----------------------------------|-----------------------------------|
B|-----------------------------------|-----------------------------------|
G|-----------------------------------|-----------------------------------|
D|-9-------5-------9-----4---/3-3-/2-|-9-------5-------9-----4---/5-5-/2-|
A|-7-------3-------7-----4---/3-3-/2-|-7-------3-------7-----4---/5-5-/2-|
E|-0-------0-------0-----2---/1-1-/0-|-0-------0-------0-----2---/3-3-/0-|  

[Riff 1b]                
e|-----------------------------------|-----------------------------------|
B|-----------------------------------|-----------------------------------|
G|-----------------------------------|-----------------------------------|
D|-9-------5-------9-----4---/3-3-/2-|-9-------5-------9-----4---/5-5-/2-|
A|-7-------3-------7-----4---/3-3-/2-|-7-------3-------7-----4---/5-5-/2-|
E|-0---0-0-0---0-0-0---0-2---/1-1-/0-|-0---0-0-0---0-0-0---0-2---/3-3-/0-|
      . .     . .     .                    . .     . .     . 


e|--------------------------|---------|--------------------------|---------|
B|--------------------------|---------|--------------------------|---------|
G|--------------------------|---------|--------------------------|---------|
D|-9-------5-------9-----4--|-/3-3-/2-|-9-------5-------9-----4--|-/5-5-/2-|
A|-7-------3-------7-----4--|-/3-3-/2-|-7-------3-------7-----4--|-/5-5-/2-|
E|-0---0-0-0---0-0-0---0-2--|-/1-1-/0-|-0---0-0-0---0-0-0---0-2--|-/3-3-/0-|
      . .     . .     .                     . .     . .     . 

[Riff 2]
e|-----------------------------------|-----------------------------------|
B|-----------------------------------|-----------------------------------|
G|-----------------------------------|-----------------------------------|
D|-2-----3-3---2---2-----4---/5-5-/2-|-2-----3-3---2---2-----4---/5-5-/2-|
A|-2-----3-3---2---2-----4---/5-5-/2-|-2-----3-3---2---2-----4---/5-5-/2-|
E|-0---0-1-1-0-0---0---0-2---/3-3-/0-|-0---0-1-1-0-0---0---0-2---/3-3-/0-|
       .     .         .                   .     .         .

e|-----------------------------------|-----------------------------------|
B|-----------------------------------|-----------------------------------|
G|-----------------------------------|-----------------------------------|
D|-2-----3-3---2---2-----4---/5-5-/2-|-2-----3-3---2---2-----4---/5-5-/2-|
A|-2-----3-3---2---2-----4---/5-5-/2-|-2-----3-3---2---2-----4---/5-5-/2-|
E|-0---0-1-1-0-0---0---0-2---/3-3-/0-|-0---0-1-1-0-0---0---0-2---/3-3-/0-|
       .     .         .                   .     .         .


e|-----------------------------------|-----------------------------------|
B|-----------------------------------|-----------------------------------|
G|-----------------------------------|-----------------------------------|
D|-2-----3-3---2---2-----4---/5-5-/2-|-2-----3-3---2---2-----4---/5-5-/2-|
A|-2-----3-3---2---2-----4---/5-5-/2-|-2-----3-3---2---2-----4---/5-5-/2-|
E|-0---0-1-1-0-0---0---0-2---/3-3-/0-|-0---0-1-1-0-0---0---0-2---/3-3-/0-|
       .     .         .                     .     .         .


e|-----------------------------------|-----------------------------------|
B|-----------------------------------|-----------------------------------|
G|-----------------------------------|-----------------------------------|
D|-2-----3-3---2---2-----4---/5-5-/2-|-2-----3-3---2---2-----4---/5-5-/2-|
A|-2-----3-3---2---2-----4---/5-5-/2-|-2-----3-3---2---2-----4---/5-5-/2-|
E|-0---0-1-1-0-0---0---0-2---/3-3-/0-|-0---0-1-1-0-0---0---0-2---/3-3-/0-|
       .     .         .                   .     .         .


e|-----------------------------------|-----------------------------------|
B|-----------------------------------|-----------------------------------|
G|-----------------------------------|-----------------------------------|
D|-2-----3-3---2---2-----4---/5-5-/2-|-2-----3-3---2---2-----4---/5-5-/2-|
A|-2-----3-3---2---2-----4---/5-5-/2-|-2-----3-3---2---2-----4---/5-5-/2-|
E|-0---0-1-1-0-0---0---0-2---/3-3-/0-|-0---0-1-1-0-0---0---0-2---/3-3-/0-|
       .     .         .                   .     .         .


e|-----------------------------------|-----------------------------------|
B|-----------------------------------|-----------------------------------|
G|-----------------------------------|-----------------------------------|
D|-2-----3-3---2---2-----4---/5-5-/2-|-2-----3-3---2---2-----4---/5-5-/2-|
A|-2-----3-3---2---2-----4---/5-5-/2-|-2-----3-3---2---2-----4---/5-5-/2-|
E|-0---0-1-1-0-0---0---0-2---/3-3-/0-|-0---0-1-1-0-0---0---0-2---/3-3-/0-|
       .     .         .                   .     .         .

[Riff 3]
e|------------------------------------------------------------------------|
B|------------------------------------------------------------------------|
G|-----0-------0-------0-------0-------0-------0-------0-------0----------|
D|-------2-------2-------2-------2-------2-------2-------2-------2--------|
A|---2-------2-------2-------2-------2-------2-------2-------2------------|
E|-0-------0-------0-------0-------0-------0-------0-------0--------------|



e|------------------------------------------------------------------------|
B|------------------------------------------------------------------------|
G|-----0-------0-------0-------0-------0-------0-------0-------0----------|
D|-------5-------5-------5-------5-------4-------4-------4-------4--------|
A|---5-------5-------5-------5-------4-------4-------4-------4------------|
E|-3-------3-------3-------3-------2-------2-------2-------2--------------|



e|------------------------------------------------------------------------|
B|------------------------------------------------------------------------|
G|-----0-------0-------0-------0-------0-------0-------0-------0----------|
D|-------2-------2-------2-------2-------2-------2-------2-------2--------|
A|---2-------2-------2-------2-------2-------2-------2-------2------------|
E|-0-------0-------0-------0-------0-------0-------0-------0--------------|



e|------------------------------------------------------------------------|
B|------------------------------------------------------------------------|
G|-----0-------0-------0-------0-------0-------0-------0-------0----------|
D|-------5-------5-------5-------5-------4-------4-------4-------4--------|
A|---5-------5-------5-------5-------4-------4-------4-------4------------|
E|-3-------3-------3-------3-------2-------2-------2-------2--------------|



e|------------------------------------------------------------------------|
B|------------------------------------------------------------------------|
G|-----0-------0-------0-------0-------0-------0-------0-------0----------|
D|-------2-------2-------2-------2-------2-------2-------2-------2--------|
A|---2-------2-------2-------2-------2-------2-------2-------2------------|
E|-0-------0-------0-------0-------0-------0-------0-------0--------------|



e|------------------------------------------------------------------------|
B|------------------------------------------------------------------------|
G|-----0-------0-------0-------0-------0-------0-------0-------0----------|
D|-------5-------5-------5-------5-------4-------4-------4-------4--------|
A|---5-------5-------5-------5-------4-------4-------4-------4------------|
E|-3-------3-------3-------3-------2-------2-------2-------2--------------|



e|------------------------------------------------------------------------|
B|------------------------------------------------------------------------|
G|-----0-------0-------0-------0-------0-------0-------0-------0----------|
D|-------2-------2-------2-------2-------2-------2-------2-------2--------|
A|---2-------2-------2-------2-------2-------2-------2-------2------------|
E|-0-------0-------0-------0-------0-------0-------0-------0--------------|

[Riff 1]              
e|-----------------------------------|-----------------------------------|
B|-----------------------------------|-----------------------------------|
G|-----------------------------------|-----------------------------------|
D|-9-------5-------9-----4---/3-3-/2-|-9-------5-------9-----4---/5-5-/2-|
A|-7-------3-------7-----4---/3-3-/2-|-7-------3-------7-----4---/5-5-/2-|
E|-0-------0-------0-----2---/1-1-/0-|-0-------0-------0-----2---/3-3-/0-|


 
e|-----------------------------------|-----------------------------------|
B|-----------------------------------|-----------------------------------|
G|-----------------------------------|-----------------------------------|
D|-9-------5-------9-----4---/3-3-/2-|-9-------5-------9-----4---/5-5-/2-|
A|-7-------3-------7-----4---/3-3-/2-|-7-------3-------7-----4---/5-5-/2-|
E|-0-------0-------0-----2---/1-1-/0-|-0-------0-------0-----2---/3-3-/0-| 

[Fill 1]
e|---------------------------------|
B|---------------------------------|
G|---------------------------------|
D|-2-------------------------------|
A|-2-------------------------------|
E|-0-------------------------------|  

[Riff 4]
e|-----------------------------------------------------------------|
B|-----------------------------------------------------------------|
G|-----------------------------------------------------------------|
D|-0---------------2---------------0---------------2---------------|
A|-2---------------2---------------0---------------2---------------|
E|-1---------------0---------------1---------------0---------------| 



e|-----------------------------------------------------------------|
B|-----------------------------------------------------------------|
G|-----------------------------------------------------------------|
D|-0---------------2---------------0-------------------------------|
A|-2---------------2---------------0-------------------------------|
E|-1---------------0---------------1-------------------------------| 

[Riff 5]
e|-----------------------------------------------------------------|
B|-----------------------------------------------------------------|
G|-------0-----0-------0-------0-------0-------0-------0-------0---|
D|-----4-----4---4---4---4---4---4---4---4---4---4---4---4---4---4-|
A|---2-----2-------2-------2-------2-------2-------2-------2-------|
E|-0---------------------------------------------------------------|



e|-----------------------------------------------------------------|
B|-----------------------------------------------------------------|
G|-------2-----2-------2-------2-------2-------2-------2-------2---|
D|-----5-----5---5---5---5---5---5---5---5---5---5---5---5---5---5-|
A|---3-----3-------3-------3-------3-------3-------3-------3-------|
E|-0---------------------------------------------------------------|



e|-----------------------------------------------------------------|
B|-----------------------------------------------------------------|
G|-------0-----0-------0-------0-------0-------0-------0-------0---|
D|-----4-----4---4---4---4---4---4---4---4---4---4---4---4---4---4-|
A|---2-----2-------2-------2-------2-------2-------2-------2-------|
E|-0---------------------------------------------------------------|



e|-----------------------------------------------------------------|
B|-----------------------------------------------------------------|
G|-------2-----2-------2-------2-------2-------2-------2-------2---|
D|-----5-----5---5---5---5---5---5---5---5---5---5---5---5---5---5-|
A|---3-----3-------3-------3-------3-------3-------3-------3-------|
E|-0---------------------------------------------------------------|



e|-----------------------------------------------------------------|
B|-----------------------------------------------------------------|
G|-------0-----0-------0-------0-------0-------0-------0-------0---|
D|-----4-----4---4---4---4---4---4---4---4---4---4---4---4---4---4-|
A|---2-----2-------2-------2-------2-------2-------2-------2-------|
E|-0---------------------------------------------------------------|



e|-----------------------------------------------------------------|
B|-----------------------------------------------------------------|
G|-------2-----2-------2-------2-------2-------2-------2-------2---|
D|-----5-----5---5---5---5---5---5---5---5---5---5---5---5---5---5-|
A|---3-----3-------3-------3-------3-------3-------3-------3-------|
E|-0---------------------------------------------------------------|



e|-----------------------------------------------------------------|
B|-----------------------------------------------------------------|
G|-------0-----0-------0-------0-------0-------0-------0-------0---|
D|-----4-----4---4---4---4---4---4---4---4---4---4---4---4---4---4-|
A|---2-----2-------2-------2-------2-------2-------2-------2-------|
E|-0---------------------------------------------------------------|



e|-----------------------------------------------------------------|
B|-----------------------------------------------------------------|
G|-------2-----2-------2-------2-------2-------2-------2-------2---|
D|-----5-----5---5---5---5---5---5---5---5---5---5---5---5---5---5-|
A|---3-----3-------3-------3-------3-------3-------3-------3-------|
E|-0---------------------------------------------------------------|

[Riff 6] 
e|-0---------------0---------------0---------------0---------------|
B|-0---------------0---------------0---------------0---------------|
G|-0---------------0---------------0---------------0---------------|
D|-2---2-2-2-2-2-2-2---2-2-2-2-2-2-2---2-2-2-2-2-2-2---2-2-2-2-2-2-|
A|-2---2-2-2-2-2-2-2---2-2-2-2-2-2-2---2-2-2-2-2-2-2---2-2-2-2-2-2-|
E|-0---0-0-0-0-0-0-0---0-0-0-0-0-0-0---0-0-0-0-0-0-0---0-0-0-0-0-0-|
       . . . . . .     . . . . . .     . . . . . .     . . . . . . 


e|-----------------------------------------------------------------|
B|-----------------------------------------------------------------|
G|-4---------------4---------------2---------------2---------------|
D|-2---2-2-2-2-2-2-2---2-2-2-2-2-2-2---2-2-2-2-2-2-2---2-2-2-2-2-2-|
A|-2---2-2-2-2-2-2-2---2-2-2-2-2-2-2---2-2-2-2-2-2-2---2-2-2-2-2-2-|
E|-0---0-0-0-0-0-0-0---0-0-0-0-0-0-0---0-0-0-0-0-0-0---0-0-0-0-0-0-|
       . . . . . .     . . . . . .     . . . . . .     . . . . . .
 

e|-0---------------0---------------0---------------0---------------|
B|-0---------------0---------------0---------------0---------------|
G|-0---------------0---------------0---------------0---------------|
D|-2---2-2-2-2-2-2-2---2-2-2-2-2-2-2---2-2-2-2-2-2-2---2-2-2-2-2-2-|
A|-2---2-2-2-2-2-2-2---2-2-2-2-2-2-2---2-2-2-2-2-2-2---2-2-2-2-2-2-|
E|-0---0-0-0-0-0-0-0---0-0-0-0-0-0-0---0-0-0-0-0-0-0---0-0-0-0-0-0-|
       . . . . . .     . . . . . .     . . . . . .     . . . . . . 


e|-----------------------------------------------------------------|
B|-----------------------------------------------------------------|
G|-4---------------4---------------2---------------2---------------|
D|-2---2-2-2-2-2-2-2---2-2-2-2-2-2-2---2-2-2-2-2-2-2---2-2-2-2-2-2-|
A|-2---2-2-2-2-2-2-2---2-2-2-2-2-2-2---2-2-2-2-2-2-2---2-2-2-2-2-2-|
E|-0---0-0-0-0-0-0-0---0-0-0-0-0-0-0---0-0-0-0-0-0-0---0-0-0-0-0-0-|
       . . . . . .     . . . . . .     . . . . . .     . . . . . . 



e|-0---------------0---------------0---------------0---------------|
B|-0---------------0---------------0---------------0---------------|
G|-0---------------0---------------0---------------0---------------|
D|-2---2-2-2-2-2-2-2---2-2-2-2-2-2-2---2-2-2-2-2-2-2---2-2-2-2-2-2-|
A|-2---2-2-2-2-2-2-2---2-2-2-2-2-2-2---2-2-2-2-2-2-2---2-2-2-2-2-2-|
E|-0---0-0-0-0-0-0-0---0-0-0-0-0-0-0---0-0-0-0-0-0-0---0-0-0-0-0-0-|
       . . . . . .     . . . . . .     . . . . . .     . . . . . . 


e|-----------------------------------------------------------------|
B|-----------------------------------------------------------------|
G|-4---------------4---------------2---------------2---------------|
D|-2---2-2-2-2-2-2-2---2-2-2-2-2-2-2---2-2-2-2-2-2-2---2-2-2-2-2-2-|
A|-2---2-2-2-2-2-2-2---2-2-2-2-2-2-2---2-2-2-2-2-2-2---2-2-2-2-2-2-|
E|-0---0-0-0-0-0-0-0---0-0-0-0-0-0-0---0-0-0-0-0-0-0---0-0-0-0-0-0-|
       . . . . . .     . . . . . .     . . . . . .     . . . . . . 


e|-0---------------0---------------0---------------0---------------|
B|-0---------------0---------------0---------------0---------------|
G|-0---------------0---------------0---------------0---------------|
D|-2---2-2-2-2-2-2-2---2-2-2-2-2-2-2---2-2-2-2-2-2-2---2-2-2-2-2-2-|
A|-2---2-2-2-2-2-2-2---2-2-2-2-2-2-2---2-2-2-2-2-2-2---2-2-2-2-2-2-|
E|-0---0-0-0-0-0-0-0---0-0-0-0-0-0-0---0-0-0-0-0-0-0---0-0-0-0-0-0-|
       . . . . . .     . . . . . .     . . . . . .     . . . . . . 


e|-----------------------------------------------------------------|
B|-----------------------------------------------------------------|
G|-4---------------4---------------2---------------2---------------|
D|-2---2-2-2-2-2-2-2---2-2-2-2-2-2-2---2-2-2-2-2-2-2---2-2-2-2-2-2-|
A|-2---2-2-2-2-2-2-2---2-2-2-2-2-2-2---2-2-2-2-2-2-2---2-2-2-2-2-2-|
E|-0---0-0-0-0-0-0-0---0-0-0-0-0-0-0---0-0-0-0-0-0-0---0-0-0-0-0-0-|
       . . . . . .     . . . . . .     . . . . . .     . . . . . . 

[Riff 3]
e|------------------------------------------------------------------------|
B|------------------------------------------------------------------------|
G|-----0-------0-------0-------0-------0-------0-------0-------0----------|
D|-------2-------2-------2-------2-------2-------2-------2-------2--------|
A|---2-------2-------2-------2-------2-------2-------2-------2------------|
E|-0-------0-------0-------0-------0-------0-------0-------0--------------|



e|------------------------------------------------------------------------|
B|------------------------------------------------------------------------|
G|-----0-------0-------0-------0-------0-------0-------0-------0----------|
D|-------5-------5-------5-------5-------4-------4-------4-------4--------|
A|---5-------5-------5-------5-------4-------4-------4-------4------------|
E|-3-------3-------3-------3-------2-------2-------2-------2--------------|



e|------------------------------------------------------------------------|
B|------------------------------------------------------------------------|
G|-----0-------0-------0-------0-------0-------0-------0-------0----------|
D|-------2-------2-------2-------2-------2-------2-------2-------2--------|
A|---2-------2-------2-------2-------2-------2-------2-------2------------|
E|-0-------0-------0-------0-------0-------0-------0-------0--------------|



e|------------------------------------------------------------------------|
B|------------------------------------------------------------------------|
G|-----0-------0-------0-------0-------0-------0-------0-------0----------|
D|-------5-------5-------5-------5-------4-------4-------4-------4--------|
A|---5-------5-------5-------5-------4-------4-------4-------4------------|
E|-3-------3-------3-------3-------2-------2-------2-------2--------------|



e|------------------------------------------------------------------------|
B|------------------------------------------------------------------------|
G|-----0-------0-------0-------0-------0-------0-------0-------0----------|
D|-------2-------2-------2-------2-------2-------2-------2-------2--------|
A|---2-------2-------2-------2-------2-------2-------2-------2------------|
E|-0-------0-------0-------0-------0-------0-------0-------0--------------|



e|------------------------------------------------------------------------|
B|------------------------------------------------------------------------|
G|-----0-------0-------0-------0-------0-------0-------0-------0----------|
D|-------5-------5-------5-------5-------4-------4-------4-------4--------|
A|---5-------5-------5-------5-------4-------4-------4-------4------------|
E|-3-------3-------3-------3-------2-------2-------2-------2--------------|



e|------------------------------------------------------------------------|
B|------------------------------------------------------------------------|
G|-----0-------0-------0-------0-------0-------0-------0-------0----------|
D|-------2-------2-------2-------2-------2-------2-------2-------2--------|
A|---2-------2-------2-------2-------2-------2-------2-------2------------|
E|-0-------0-------0-------0-------0-------0-------0-------0--------------|



e|------------------------------------------------------------------------|
B|------------------------------------------------------------------------|
G|-----0-------0-------0-------0-------0-------0-------0-------0----------|
D|-------5-------5-------5-------5-------4-------4-------4-------4--------|
A|---5-------5-------5-------5-------4-------4-------4-------4------------|
E|-3-------3-------3-------3-------2-------2-------2-------2--------------|
 
************************************

| /  Slide up
| .  Palm Mute 

************************************

            
            
Suggest correction
Creating personal tab
Creating personal tab
You can edit any tab online and save it as your Personal.

You can edit, replace or remove any tab part or add personal notes – all changes will be seen only by you.

Personal tabs can be accessed anytime from any device, even offline.
Learn more »
Give kudos to tab author, rate the tab!
1 2 3 4 5
comments
print report bad tab
guest
You may want to rate the tab now too:
select rating
Wanna post a correction for this tab? Suggest correction