Oops, an error
Loading. Please wait.

Hermodr A Helferd tab

version 1
version 1

Whole song

Interactive

by Burzum
828 views 1 this week
2 commentsread comments
1 2 3 4 5
2 more votes to show rating
add to favorites
×
Save as Personal and add changes to this tab that will be seen only by you. Learn more ›
×
You can save this tab as Personal to edit and correct it or add notes. All changes will be seen only by you. Learn more »
launch autoscroll
font size
0
reset
how to read this tab
guitar tuner
edit
Autoscroll
slow
fast
+/-
esc
set tempo
stop
Author
Difficulty
-------------------------------------------------------------------------------
                             Hermodr A Helferd - Burzum
-------------------------------------------------------------------------------
Tabbed by: Chaingang
Email: deltreed@umail.iu.edu

Tuning:Standard

This tab represents my interpretation of this song. I tabbed this out because the other 
tab on this site was completely off.
I hope you enjoy Burzum's music as much as I do. Remember, you can always shift notes 
around to different strings if you feel the need.

If you like this tab, please check out my other Daudi Baldrs tabs.

Piano (Repeat throughout)

e|---------------------------------------------------------------------------|
B|---------------------------------------------------------------------------|
G|---------------------------------------------------------------------------|
D|---------12----------------------------------------------------------------|
A|--10------------10-----------------Last note of song-----------------------|
E|-----------------------12-----------(--12~-)-------------------------------|

Violin

e|--------------------14----------------------------17-----------------------|
B|--12--15--12----12------15-----12--15--12-----12------19-------------------|
G|---------------------------------------------------------------------------|
D|---------------------------------------------------------------------------|
A|---------------------------------------------------------------------------|
E|---------------------------------------------------------------------------|

************************************

| /   slide up
| \   slide down
| h   hammer-on
| p   pull-off
| ~   vibrato
| +   harmonic
| x   Mute note
| b   Bend
| pb  Pre-bend
| br  Bend release
| pbr Pre-bend release
| brb Bend release bend

************************************

            
            
Suggest correction
Creating personal tab
Creating personal tab
You can edit any tab online and save it as your Personal.

You can edit, replace or remove any tab part or add personal notes – all changes will be seen only by you.

Personal tabs can be accessed anytime from any device, even offline.
Learn more »
Give kudos to tab author, rate the tab!
1 2 3 4 5
comments
print report bad tab
2 comments total.
0 reply
Deathcore69 265 Jun 25, 2011 06:38 AM

piano is totally off..but violin is ok

0 reply
Deathcore69 265 Jun 25, 2011 06:42 AM

E)--------------------------------------------------------
H)--------------------------------------------------------
G)----------11--------------------------------------------
D)----9-------------9-------------------------------------
A)-------------------------10-----------------------------
E)--------------------------------------------------------

guest
You may want to rate the tab now too:
select rating
Wanna post a correction for this tab? Suggest correction