Oops, an error
Loading. Please wait.

Lost Wisdom Tab

version 1
version 1

Whole song

Interactive

28,818 views 102 this week
3 commentsread comments
1 2 3 4 5
x 12
add to favorites
launch autoscroll
font size
0
reset
how to read this tab
guitar tuner
Autoscroll
slow
fast
+/-
esc
set tempo
stop
Help us to improve Ultimate-Guitar.com Take our survey!
×
Author
Burzum: Lost wisdom
from "Det som engang var"

Added To Ultimate-Guitar.com by Mikhailo (TabTeam Member)


Listen to the record for the timings...
Massive distortion

[Riff A] (shuffle)                      4 times   Verse: Riff B (guitar plays alone 2 times)
                                                        Strum freely.

e||--------------------------|---------------------||--------------------------|----------|
B||--------------------------|---------------------||--------------------------|----------|
G||--------------------------|---------------------||--------------------------|----------|
D||----4---------------------|----4----------------||-2--2--2--25--5--5--5--54-|--4--4----|
A||-2--2--2-------2--2--5--6-|-2--2--2-------------||-2--2--2--22--2--2--2--23-|--3--3----|
E||-0-----0--3--0-0--0--3--4-|-0-----0--3--1----2~-||--------------------------|----------|

        6 times         Repeat Riff A 2 times   Repeat Riff B 6 times  Interlude


e|--------------------||-----------------------||----------------------||-----------|--|
B|--------------------||-----------------------||----------------------||-----------|--|
G|--------------------||-----------------------||----------------------||-----------|--|
D|-4--44-4--44--5--4--||-----------------------||----------------------||-----------|--|
A|-3--33-3--33--3--3--||-----------------------||----------------------||-7---------|--|
E|--------------------||-----------------------||----------------------||--------8\-|--|


                                        2:nd guitar doubles same figure from upper H
                                                                        2 times

e||-----------|-----------|------------||--------------------------|-----------------------||
B||-----------|-----------|------------||--------------------------|-----------------------||
G||-----------|-----------|------------||--------------------------|-----------------------||
D||-----------|-----------|------------||---------10--9\-----------|--------10--9\---------||
A||-----------|-7---------|------------||-7-8-7--------------------|-7-8-7-----------------||
E||-2~----3-5-|--------8\-|-2----3-2-3-||----------------2----3--5-|--------------2--3-2-3-||
                            p.m.--I


2:nd guitar doubles same figure from upper H         Theres maybe 3 guitars doubling here..
                                                   (On the 3rd and 4rth times,
                                                        play variation of riff)

                                2 times              E5         G5

e||----------|------------|----------|-------------||------------------------------|
B||----------|------------|----------|-------------||------------------------------|
G||----------|------------|----------|-------------||-7--7--7--7/10-10-10-10-10\9--|
D||----------|------------|----------|-------------||------------------------------|
A||-7--------|------------|-7--------|-------------||------------------------------|
E||-------8\-|-2----3--5--|-------8\-|-2----3-2-3--||------------------------------|

 F#5            4 times         Repeat Riff B 6 times(2 times guitar alone)  fin

e||-----------------------------||-------------------------------------------||------|
B||-----------------------------||-------------------------------------------||------|
G||-9--9--9--9-9-9--9-9-10--9---||-------------------------------------------||------|
D||-----------------------------||-------------------------------------------||-2----|
A||-----------------------------||-------------------------------------------||-2----|
E||-----------------------------||-------------------------------------------||------|



************************************

| ~  Vibrato
| \  Slide down
| /  Slide up

************************************
Suggest correction
comments
print report bad tab
3 comments total.
0 reply
666filth 30 Jun 30, 2005 12:00 AM

instead of this -
I------------------------------------------------------------I
I------------------------------------------------------------I
I-7--7--7--7/10-10-10-10-10\9----9--9--9--9-9-9--9-9-10--9---I
I------------------------------------------------------------I
I------------------------------------------------------------I
I------------------------------------------------------------I

i think its this -
I------------------------------------------------------------I
I------------------------------------------------------------I
I-4-4-4-4/7-7-7-7-7\6-6-6-6-6-6-6-6-6-7-6--------------------I
I------------------------------------------------------------I
I------------------------------------------------------------I
I------------------------------------------------------------I

+3 reply
TempleOfMonkeys 61 Sep 21, 2007 11:34 AM

yes, but no slides. just a pull off at the end on the first and third times around:
I------------------------------------------------------------I
I------------------------------------------------------------I
I-4-4-4-4-7-7-7-7-7-6-6-6-6-6-6-6-6-6-7-6p-------------------I
I------------------------------------------------------------I
I------------------------------------------------------------I
I------------------------------------------------------------I

the second and fourth times the last 2 notes are a fourth higher:
I------------------------------------------------------------I
I-------------------------------------8-7--------------------I
I-4-4-4-4-7-7-7-7-7-6-6-6-6-6-6-6-6-6------------------------I
I------------------------------------------------------------I
I------------------------------------------------------------I
I------------------------------------------------------------I

all in all, this tab is actually pretty inaccurate so.. yahh..

-1 reply
TempleOfMonkeys 61 Sep 21, 2007 11:36 AM

mostly innacurate, no proper structure. its a shame that such an easy song could be so messed up.

guest
You may want to rate the tab now too:
select rating
Wanna post a correction for this tab? Suggest correction