Oops, an error
Loading. Please wait.

Stemmen Fra Taarnet tab

version 2
version 2

Whole song

Interactive

by Burzum
1,397 views 1 this week
2 commentsread comments
1 2 3 4 5
2 more votes to show rating
add to favorites
×
Save as Personal and add changes to this tab that will be seen only by you. Learn more ›
×
You can save this tab as Personal to edit and correct it or add notes. All changes will be seen only by you. Learn more »
launch autoscroll
font size
0
reset
how to read this tab
guitar tuner
edit
Autoscroll
slow
fast
+/-
esc
set tempo
stop
Author
Tabbed by: eduardo_metal
E-mail: slash.petrucci@gmail.com
Band: Burzum
Song: Stemmen Fra Taarnet
Album: Aske
Label: Deathlike Silence Productions
Tuning: Standard (E A D G B e)

Riff1
e-------|
B-------|
G-------|   Do it some times
D-3-----|
A-3-----|
E-1-----|

Riff 2
e-----------------------------------------------------------|
B-----------------------------------------------------------|
G-6-6-6-5-5-6-6-6--6-8-8-9-6-6-6-5-5-6-6-6------------------|
D-6-6-6-5-5-6-6-6--6-8-8-9-6-6-6-5-5-6-6-6--7---------------|
A-4-4-4-3-3-4-4-4--4-6-6-7-4-4-4-3-3-4-4-4--7---------------|
E-------------------------------------------5---------------|

Riff 3 (This riff is very fast, listen to the song to get the rithm)
e---------------------------------------------------------------------------|
B---------------------------------------------------------------------------|
G------------11-11-10-10-11-11-10-11-11-11-11-13-13-11-11-10-10-11-11-10----|
D-8-8-8-8-88-11-11-10-10-11-11-10-11-11-11-11-13-13-11-11-10-10-11-11-10-8--|
A-8-8-8-8-88-9--9--8--8--9--9--8--9--9--9--9--11-11-9--9--8--8--9--9--8--8--|
E-6-6-6-6-66-------------------------------------------------------------6--|

Riff 4
e---------------------|
B---------------------|
G---------------------|
D-8--9--8--11--10--8--|   Do it some times and enter the riff 1 again.
A-8--9--8--11--10--8--|
E-6--7--6--9---8---6--|

(Riff 2)

Riff 5
e----
B----
G----    Do it ending the riff 2 some times
D-6--
A-6--
E-4--

Riff 6
e----------------------------|
B----------------------------|
G----------------------------|   Do it 2 times and enter the riff 3 again
D-66666666-77777777-66666666-|
A-66666666-77777777-66666666-|
E-44444444-55555555-44444444-|

(Riff 3)

(Riff 4)

(Riff 2)

END

Listen the song to get the rithm.
Any comments, suggestions or whatever are welcome to my e-mail :).

ENJOY!

            
            
Suggest correction
Creating personal tab
Creating personal tab
You can edit any tab online and save it as your Personal.

You can edit, replace or remove any tab part or add personal notes – all changes will be seen only by you.

Personal tabs can be accessed anytime from any device, even offline.
Learn more »
Give kudos to tab author, rate the tab!
1 2 3 4 5
comments
print report bad tab
2 comments total.
0 reply
mr. broken 124 Dec 19, 2005 01:23 PM

You forgot slides in riff 2 and the ending is not good. It should be like this:

e-----------------------------------------------------------|
B-----------------------------------------------------------|
G-6-6-6/5-5\6-6-6-6/8-8/9-6-6-6/5-5\6-6/5-2-----------------|
D-6-6-6/5-5\6-6-6-6/8-8/9-6-6-6/5-5\6-6/5-2-----------------|
A-4-4-4/3-3\4-4-4-4/6-6/7-4-4-4/3-3\4-4/3-0-----------------|
E-----------------------------------------------------------|

Though I think it is played on two strings, I can't hear the third one.

Riff3 is also not correct. The correct is:

e[--------------------------------------------------------------]
b[--------------------------------------------------------------]
g[-----------------6-6-6-688-6-5-6------------------------------]
d[-3-3-3-333-4-3-4-4-4-4-466-4-3-4------------------------------]
a[-1-1-1-111-1-1-1----------------------------------------------]
E[--------------------------------------------------------------]

I have the correct ab, I will upload it once I'm home.

0 reply
mr. broken 124 Dec 19, 2005 01:23 PM

Btw, GJ on the effort.

guest
You may want to rate the tab now too:
select rating
Wanna post a correction for this tab? Suggest correction