Oops, an error
Loading. Please wait.

A Tendency To Start Fires Tab

version 2
version 2

Whole song

by Bush
953 views 1 this week
no commentswrite comment
1 2 3 4 5
2 more votes to show rating
add to favorites
launch autoscroll
font size
0
reset
how to read this tab
guitar tuner
Autoscroll
slow
fast
+/-
esc
set tempo
stop
Help us to improve Ultimate-Guitar.com Take our survey!
×
Author
#----------------------------------PLEASE NOTE--------------------------------#
#This file is the author's own work and represents their interpretation of the#
#song. You may only use this file for private study, scholarship, or research.#
#-----------------------------------------------------------------------------#
#-- File created with Instab - http://www.pconline.com/~smcarey/instab.html --#
#-----------------------------------------------------------------------------#

Author/Artist: Bush
Title: Tendency To Start Fires

h hammer on
/ slide up
\ slide down
P.M. Palm Mute
A arpeggio


Standard Tuning


----|--------------------------------------|--|
----|--------------------------------------|--|
----|-9/10--10-10-9-9/10-10-10-9-9/10-9-9--|--|
----|-7-----7--7--7-7----7--7--7-7----7-7--|--|
----|--------------------------------------|--|
----|--------------------------------------|--|
   
  
  Intro Arpeggio Strum (No Drums)



----|----------------------------------------------------------------------|
----|----------------------------------------------------------------------|
----|----------------------------------------------------------------------|
----|----------------------------------------------------------------------|
----|----------------------------------------------------------------------|
----|-8-10-10-10/12-6-6--10-10-10-10--6-6--8-10-10-10/12-6-6--6/8--8-8-8-6-|
        
  
  Preverse



----|-0-------|
----|-3-------|
----|---------|
----|-----8---|
----|-12--8---|
----|---------|
        
  
  Verse Pick



----|-------------------------------|--|
----|-------------------------------|--|
----|-------------------------------|--|
----|-------------------------------|--|
----|-8-8--10-10--7-7--5-5--5-5-5---|--|
----|-8-8--8--8---5-5--3-3--3-5-3---|--|
     
 
  Chorus                          




----|---------------------|--|-------|--|
----|---------------------|--|-------|--|
----|---------------------|--|-------|--|
----|---------------------|--|-------|--|
----|---------------------|--|-------|--|
----|-6--8-8--6--8-8--/12-|--|-6-8-8-|--|
         
  
  Interlude



----|--------|--|---------------|
----|--------|--|---------------|
----|--------|--|---------------|
----|--------|--|---------------|
----|--------|--|-8-------------|
----|--------|--|-8-------------|
    

  Chorus          A  
Suggest correction
Give kudos to tab author, rate the tab!
1 2 3 4 5
comments
print report bad tab
guest
You may want to rate the tab now too:
select rating
Wanna post a correction for this tab? Suggest correction