Oops, an error
Loading. Please wait.

Alien Bass Tab

version 1
version 1

Whole song

by Bush
4,506 views 6 this week
5 commentsread comments
1 2 3 4 5
accurate
x 3
add to favorites
launch autoscroll
font size
0
reset
guitar tuner
Tab Pro tools
  • play this tab
  • loop segment
  • change instrument
  • show fretboard
  • metronome
×
Best way to learn
"Alien"
Autoscroll
slow
fast
+/-
esc
set tempo
stop
From oneal@ns.netThu Aug 17 09:13:14 1995
Date: Thu, 17 Aug 1995 09:09:12 -0400
From: The O'Neal family 
To: kgold@glue.umd.edu
Subject: Alien Bass Tab

Song: Alien
Group: Bush
>From oneal@ns.net

Transcribed by: Roger N. O'Neal

This is another great creation made by Dave Parsons. It's a good, kinda far
out tune. But like every bush song, it's fun to play with a band.

Main Riff:

G |------------------------------------------------------------|
D |---11-----9-----7---7---7---2---4------4-----4-----4---4----|
A |-0-----0-----0----0---0---0---------0------0-----0---0---0--|
E |------------------------------------------------------------|

G |------------------------------------------------------------|
D |---11-----9----7---7---7---9---4-----4----4----4------------|
A |-0-----0-----0---0---0-------0----0-----0----0--------------|
E |------------------------------------------------------------|

Dave basically plays that for the whole song. Besides for the chours

Chours:
    A     G     D     B
G |---| |---| |---| |---|
D |---| |---| |---| |---|
A |---| |---| |-5-| |-2-|
E |-5-| |-3-| |---| |---|

Well that's about it.
Have fun

Roger N. O'Neal

==========================================================================
The O'Neal Family                                             oneal@ns.net
I  want  a  Slurpee  Damnit!!!!!!!!                    Citrus  Heights, CA
==========================================================================



comments
We did not receive enough feedback on this tab! Please rate:
print report bad tab
1 2 3 4 5
5 comments total. Showing first comments.
0 reply
ruin181 wrote on October 22 2004, 12:00 am

Close, but after the d|---11-----9-----7---7---7---|
a|-0-----0-----0----0---0---0-| part you play:

d|-----------------------------|
a|-4-5--4-5--4-5--4-5--5-5-5-5-|

You do the same thing for the other part, and the chorus goes:

e|-2--2--2--2--2-2/0--0--0--0--0-0\3--3--3--3--3-3/2~2~~|

There is one other part, but I haven't figured it out yet. Hopefully I'll remember to add it once I get it figured out.

0 reply
ruin181 wrote on October 22 2004, 12:00 am

Sorry for how uneven that first part is, they automatically removed my spaces.

0 reply
Zachy Boy wrote on March 13 2008, 11:55 pm

this is good till in the beginning. but the chorus is off and there isnt and "4's" in the intro/verse.

I want to post or [tab]
guest
You may want to rate the tab now too:
select rating
Please do not post tabs as comments. Select "correction" instead!