Oops, an error
Loading. Please wait.

Alien Bass Tab

version 2
version 2

Whole song

by Bush
1,094 views 1 this week
no commentswrite comment
1 2 3 4 5
1 last vote to show rating
add to favorites
launch autoscroll
font size
0
reset
guitar tuner
Autoscroll
slow
fast
+/-
esc
set tempo
stop
Help us to improve Ultimate-Guitar.com Take our survey!
×
Author
Difficulty
intermediate
Bush - Alien
Tabbed by Meghan

This was a tough one.  There seems to be a lot of potential ghost
notes in this song, but I tried to get what I thought it was.
Beware of the crazy rhythms in this song, I got what I thought the
notes are but the rhythms are kind of unpredictable, you gotta
figure it out on your own.

Intro Part 1
G|--------------------------------------------------|
D|---11----9----7----7-77---------------------------|
A|-0-----0----0----0------4-5-4-5-4-5-4-4-5-4-5-4-5-|
E|--------------------------------------------------|

Intro Part 2
G|----------------------------------------------------|
D|---11----9----7----7-7-11---------------------------|
A|-0-----0----0----0--------5-5-4-5-4-5-4-4-5-4-5-4-5-|
E|----------------------------------------------------|

Intro Part 1
Intro Part 2
Intro Part 1
Intro Part 2
Intro Part 1
Intro Part 2

1st Verse
G|-----------------------|
D|-----------------------|
A|-----------------------|
E|-5-5-10-10-5-5-5-10-10-|

Intro Part 1
Intro Part 2

1st Chorus
G|-------------------------------|
D|-------------------------------|
A|-------------------------------|
E|-2--22--0--00-0-0--4--4-2-22-2-|

Intro Part 1
Intro Part 2

2nd Verse
G|-----------------------------|
D|-----------------------------|
A|-----------------------------| x4
E|-5-5-5-5-55-10-10-10-10-1010-|

2nd Chorus
G|-------------------------------------------------------|
D|-------------------------------------------------------|
A|-------------------------------------------------------|
E|-2--22-2-2-2-0--0-0-0-0-0--4--4-4/6\4-4-4-2-2-22-2-2-2-|

Intro Part 1
Intro Part 2
Intro Part 1
Intro Part 2
Intro Part 1

G|----------------------|
D|----------------------|
A|-3~/7-6-7-6-7-6-7-6-7-| x3
E|----------------------|

G|-------------------|
D|-------------------|
A|-7-6-7-6-7-6-7-6-7-|
E|-------------------|

Ending
G|---------|
D|---------|
A|-12~~~~~-|
E|---------|
Suggest correction
Give kudos to tab author, rate the tab!
1 2 3 4 5
comments
print report bad tab
guest
You may want to rate the tab now too:
select rating
Wanna post a correction for this tab? Suggest correction