Oops, an error
Loading. Please wait.

Alien Tab

version 2
version 2

Whole song

by Bush
529 views 1 this week
no commentswrite comment
1 2 3 4 5
please rate
add to favorites
launch autoscroll
font size
0
reset
how to read this tab
guitar tuner
Tab Pro tools
  • play this tab
  • loop segment
  • change instrument
  • show fretboard
  • metronome
Autoscroll
slow
fast
+/-
esc
set tempo
stop
Contributor
#----------------------------------PLEASE NOTE--------------------------------#
#This file is the author's own work and represents their interpretation of the#
#song. You may only use this file for private study, scholarship, or research.#
#-----------------------------------------------------------------------------#
#-- File created with Instab - http://www.pconline.com/~smcarey/instab.html --#
#-----------------------------------------------------------------------------#

Author/Artist: Bush
Title: Alien

Album Tuning (eb A D G B E), Down ~ 10%, (eb, D) Down ~ 20%
Live Standard Tuning, Down ~ 10%
Key: (D + C#), Mode D


----|-------------------------------------------------|
----|-------------------------------------------------|
----|-------------------------------------------------|
----|-------------------------------------------------|
----|-------------------------------------------------|
--6-|-10---8---6---6---8\--11--11--11--11--11--11-11--|
  

  Intro                    Bass                                               




----|-------------------------------------------------|
----|-------------------------------------------------|
----|-------------------------------------------------|
----|-11--9--7----------------------------------------|
----|--------0----------------------------------------|
--6-|-10--8--6--6-6---6h8--11--11--11--11--11--11-11--|
  

  Intro/Verse/Chorus       Bass                                           





----|------------------|----------------------|
----|------------------|----------------------|
----|------------------|----------------------|
----|------------------|----------------------|
----|-5-5/7---7-7/9----|--4h5-4h5-4h5-4h5-4h5-|
----|------------------|----------------------|
  

  Fills                                                                       





----|-----------------------|
----|-----------------------|
----|-----------------------|
----|-7----6---9--------7---|
----|-9----7---10---9---9---|
----|-10---8---11---10--10--|
  

  Bridge                                                




----|-----------|
----|-5---------|
----|-5----4----|
----|-5----2----|
----|-3----2----|
----|-----------|
  

  Bridge 2                                                          
comments
We did not receive enough feedback on this tab! Please rate:
print report bad tab
1 2 3 4 5
I want to post or [tab]
guest
You may want to rate the tab now too:
select rating
Please do not post tabs as comments. Select "correction" instead!