Oops, an error
Loading. Please wait.

Baby Come Home Tab

version 1
version 1

Whole song

Interactive

by Bush
2,584 views 6 this week
2 commentsread comments
1 2 3 4 5
please rate
add to favorites
launch autoscroll
font size
0
reset
how to read this tab
guitar tuner
Tab Pro tools
  • play this tab
  • loop segment
  • change instrument
  • show fretboard
  • metronome
×
Best way to learn
"Baby Come Home"
Autoscroll
slow
fast
+/-
esc
set tempo
stop
Contributor
Difficulty
Hello everyone. This is my first time tabbing an entire song. If I have made any
mistakes please let me know so I can correct them. I grew up listening to Bush on the radio,
and it's good to hear some new stuff from them on the radio again. This song was 
somewhat difficult to tab. I had a hard time figuring out pretty much all of guitar 2's parts, but
I think this is extremely close. Anyways enjoy the tab. If you have any questions, 
comments, or corrections please post a comment here or email me at junkemails89@yahoo.com

Rock on fellow UG'ers!

Updates and changes:

3/22/2012 - Updated the ending riff that guitar 2 plays




Intro/Chorus

Guitar 1 (Pretty much repeats this throughout the entire song)
e|--------------------------------------------------|
B|--------6-----------------------------------------|
G|-5------5-x8---5------6------8--------------------| x2
D|-6-x8---3------5------6------8--------------------|
A|-6-------------3-x8---4-x4---6-x4-----------------|
E|-4------------------------------------------------|
Guitar 2
e|-9/1-1/8--8-8-8-11-11-11-9-9-9-8-8-9-9\1----------|
B|--------------------------------------------------|
G|--------------------------------------------------| x3
D|--------------------------------------------------|
A|--------------------------------------------------|
E|--------------------------------------------------|
The fourth time around for guitar 2 play this:
e|-11-11-11-9-9-9-8-8-8-9-9-9-11-11-11-9-8----------|
B|--------------------------------------------------|
G|--------------------------------------------------|
D|--------------------------------------------------|
A|--------------------------------------------------|
E|--------------------------------------------------|
I'm not 100% sure about that last part.


Bridge
Guitar 2
e|---1---1-repeat-as------4-----3-----1-------------|
B|-1---1---many-times---1-----1-----1---------------|
G|---------as-needed--------------------------------| x2
D|--------------------------------------------------|
A|--------------------------------------------------|
E|--------------------------------------------------|
Let the last 1 on the high e ring out on the second time around



For the little interlude/break part guitar 2 plays this (let these notes ring out):
Guitar 2
e|-6----10---------8-------6---6---6----------------|
B|--------11--------9-------8---8---8---10----------|
G|----------10-------8-------7---7--------10--------|
D|------------------------------------------10------|
A|--------------------------------------------------|
E|--------------------------------------------------|
Guitar 2
e|-10---------8-------6---6---6-------9/-1/11-------|
B|---11--------9-------8---8---8--10----------------|
G|-----10-------8-------7---7-------10--------------|
D|--------------------------------------------------|
A|--------------------------------------------------|
E|--------------------------------------------------|
Guitar 2
e|-11-11-11-11-11-11-11-11-11-11-11-9-9/1-1/11------|
B|--------------------------------------------------|
G|--------------------------------------------------|
D|--------------------------------------------------|
A|--------------------------------------------------|
E|--------------------------------------------------|
Guitar 2
e|-11-11-11-9-9-8------11-9-8---11-9-8--------------|
B|--------------------------------------------------|
G|--------------------------------------------------|
D|--------------------------------------------------|
A|--------------------------------------------------|
E|--------------------------------------------------|
Guitar 2
e|--------------------------------------16-18-20~---|
B|-13------13------13------13---------18------------|
G|---15^17---15^17---15^17---15^17--17--------------|
D|--------------------------------------------------|
A|--------------------------------------------------|
E|--------------------------------------------------|




Guitar 2 does a little ending riff here which sounds pretty cool
Guitar 2
e|-11/13-11-----------------------------------------|
B|----------14---14-13------14-13-------------------|
G|---------------------13---------13----------------|
D|--------------------------------------------------| x3
A|--------------------------------------------------|
E|--------------------------------------------------|


I'm going to work on the tab a bit more, but this is pretty much it. Have fun playing UG!
comments
We did not receive enough feedback on this tab! Please rate:
print report bad tab
1 2 3 4 5
2 comments total.
0 reply
DemonicTurtle66 wrote on March 26 2012, 11:39 am

By the way you can also play Guitar 1's part this way if you would prefer to:


Guitar 1
e|--------------------------------------------------|
B|--------------------------------------------------|
G|-5------10-x8-------------------------------------|
D|-6-x8---10-----10-----11-----13-------------------|
A|-6------8------10-x8--11-x4--13-x4----------------|
E|-4-------------8------9------11-------------------|

0 reply
DemonicTurtle66 wrote on April 15 2012, 09:05 pm

Here are two more ways to play Guitar 1's part:


e|--------------------------------------------------|
B|--------------------------------------------------|
G|-5------10-x8--5------6------8--------------------|
D|-6-x8---10-----5------6------8--------------------|
A|-6------8------3--x8--4--x4--6--x4----------------|
E|-4------------------------------------------------|

Or if you want more bass to it you can do it this way:

e|--------------------------------------------------|
B|--------------------------------------------------|
G|-5------10-x8--5------6------8--------------------|
D|-6-x8---10-----5------6------8--------------------|
A|-6------8------3--x8--4--x4--6--x4----------------|
E|-4-------------3------4------6--------------------|

I want to post or [tab]
guest
You may want to rate the tab now too:
select rating
Please do not post tabs as comments. Select "correction" instead!