Oops, an error
Loading. Please wait.

Bomb Tab

version 1
version 1

Whole song

Interactive

by Bush
3,964 views 9 this week
1 commentread comment
1 2 3 4 5
accurate
x 5
add to favorites
launch autoscroll
font size
0
reset
how to read this tab
guitar tuner
Tab Pro tools
  • play this tab
  • loop segment
  • change instrument
  • show fretboard
  • metronome
Autoscroll
slow
fast
+/-
esc
set tempo
stop
Contributor
-------------------------------------------------------------------------------
                                 Bomb - BUSH
-------------------------------------------------------------------------------
Tabbed by: Jordan Greczkowski
Email: jgsox33@sbcglobal.net
Tuning: Standard

Well there's only one tab for this song and it barely has anything. Not too hard to 
out, enjoy.

Intro
Guitar 1
e|-----------------------------------------|
B|------------------------------------1-0--|
G|--------------------------4--------------|
D|------2---------3-----------5------------|
A|----2---------3---3/----5--------3-------|
E|--0-----0--1----------3--------1---------|

Guitar 2
Riff throughout the song
e|----------------------------------------|
B|----------------------------------------|
G|--12s11-9s11-9s7--9s7-4s7-4s2-4s2--0----|
D|-------------------------------------2--|
A|----------------------------------------|
E|----------------------------------------|

Chorus
e|-------------|
B|-------------|
G|--5555--X33--|  x4
D|--5555--X33--|
A|--3333--X11--|
E|-------------|

e|-------------|
B|-------------|
G|--5555--X88--|  x1
D|--5555--X88--|
A|--3333--X66--|
E|-------------|

Small Riff
e|------------------------|
B|------------------------|
G|--13-14-16-14s16-14-13--|
D|------------------------|
A|------------------------|
E|------------------------|

Then these parts again
e|-----------------------------------------|
B|------------------------------------1-0--|
G|--------------------------4--------------|
D|------2---------3-----------5------------|
A|----2---------3---3/----5--------3-------|
E|--0-----0--1----------3--------1---------|

e|----------------------------------------|
B|----------------------------------------|
G|--12s11-9s11-9s7--9s7-4s7-4s2-4s2--0----|
D|-------------------------------------2--|
A|----------------------------------------|
E|----------------------------------------|

Bridge
High Distortion
Guitar 1
e|----------------------|
B|----------------------|
G|----------------------|
D|--222--333--555--333--|
A|--222--333--555--333--|
E|--000--111--333--111--|

Guitar 2
e|----------------------------------|
B|--12b~12b~--6-6-8-6-5s3-5---------|
G|---------------------------2-2s4--|
D|----------------------------------|
A|----------------------------------|
E|----------------------------------|


That's about it. Enjoy, comment, rate! Thanks.
comments
print report bad tab
1 comment total.
0 reply
Mr.Sir wrote on September 20 2012, 05:59 pm

I think the end of the intro is played like this:

-----------------|
------------1-0--|
--4--------------|
----5------------|
-----------------|
-------1-1-------|

and then it's also played like this every time the riff is repeated.

I think it sounds better and more like how it is in the song. Otherwise great tab man.

I want to post or [tab]
guest
You may want to rate the tab now too:
select rating
Please do not post tabs as comments. Select "correction" instead!