Oops, an error
Loading. Please wait.

Bubbles Tab

version 2
version 2

Whole song

by Bush
129 views 1 this week
no commentswrite comment
1 2 3 4 5
please rate
add to favorites
launch autoscroll
font size
0
reset
how to read this tab
guitar tuner
Autoscroll
slow
fast
+/-
esc
set tempo
stop
Help us to improve Ultimate-Guitar.com Take our survey!
×
Author
Difficulty
Intro
      D#5      D5    D#5   A5
e)-------------------------------------------------|
B)-------------------------------------------------|
G)---8--8--8---7--7---8--8---2--2--2---------------|
D)---8--8--8---7--7---8--8---2--2--2---------------|
A)---6--6--6---5--5---6--6---0--0--0---------------|
E)-------------------------------------------------|
Above riff x2
then
e)---------------------------------------------------|
B)---------------------------------------------------|
G)---8--8--8--7--7--8--8--14--14--14-----------------|     x2
D)---------------------------------------------------|
A)---------------------------------------------------|
E)---------------------------------------------------|

Verses
Muting that produces harmonics
and weird feedback

Pre-Chorus
    C5  D5
e)---------------|
B)---------------|
G)---5---7-------|
D)---5---7-------|
A)---3---5-------|
E)---------------|

Chorus
     G5                        F#5
e)---------             e)---------------|
B)--------              B)---------------|
G)--------    x12       G)--------  x12--|
D)---5---               D)---4-----------|
A)---5---               A)---4-----------|
E)---3---               E)---2-----------|


Bridge
e)---------7--6--9---------|
B)----8--------------------|
G)-------------------------|
D)-------------------------|
A)-------------------------|
E)-------------------------|
after above riff does x1 do
e)-------------------------------------------------------------|
B)-------------------------------------------------------------|
G)-------------------------------------------------------------|
D)---5--5--5--5---5--5--5--5---5--5----4--4--4--4--------------|
A)---5--5--5--5---5--5--5--5---5--5----4--4--4--4--------------|
E)---3--3--3--3---3--3--3--3---3--3----2--2--2--2--------------|

e)-----------------------------|
B)-----------------------------|
G)-----------------------------|
D)---4--4--4--4---4--4---------|
A)---4--4--4--4---4--4---------|
E)---2--2--2--2---2--2---------|
then
e)------------------------------------------------------------------------|
B)------------------------------------------------------------------------|
G)------------------------------------------------------------------------|b=bend 1/2 step
D)------------------------------------------------------------------------|*=feedback
A)---6--6--5--5--6--6--0--0--0--6--6--5--5--6--6--12b*--------------------|
E)------------------------------------------------------------------------|

End with chorus over and over


Lyrics
Got all these days to alleviate
Got all these ways to vent it straight
Inter-shitty life, it tries to bring you down
You'll still be young
Where did this life go?

Don't twist your face all funny
You suck the life outside of me

Forever blowing bubbles all away
There is nothing left to lose,
There is nothing left to gain
Forever blowing bubbles all away
There is nothing left to lose,
There is nothing left to gain

Bubbles

Deconstruct your modern fable
Homogenize your stake-laid angel
Stop beating me interpretation
We're a sick, sick, sick
We've watched it created

Have the means to hang out monotony
I found it inside of me
Suggest correction
Give kudos to tab author, rate the tab!
1 2 3 4 5
comments
print report bad tab
guest
You may want to rate the tab now too:
select rating
Wanna post a correction for this tab? Suggest correction