Oops, an error
Loading. Please wait.

Cold Contagious Bass Tab

version 2
version 2

Whole song

Interactive

by Bush
837 views 6 this week
no commentswrite comment
1 2 3 4 5
2 more votes to show rating
add to favorites
launch autoscroll
font size
0
reset
guitar tuner
Autoscroll
slow
fast
+/-
esc
set tempo
stop
Help us to improve Ultimate-Guitar.com Take our survey!
×
Author
Difficulty
novice
Artist: Bush
Song: Cold Contagious
Album: Razorblade Suitcase
Year: 1996
Bass player: Dave Parsons
Tabbed by: MhStrat


Main riff / Verse:
G|-------------------------------------------------------|
D|---------------------0----------------------0----0-----|
A|---7--7--7-7-7--7--0---0--3--3--3-3-3--3--0----0---0---| 
E|-------------------------------------------------------|
     'Wherever you are...'  'you will cary always...'


Pre-chorus:
G|-------------------------------------------------------|
D|-------------------------------------------------------|
A|-------------------------------------------------------|
E|---0-0--0--0-0-0--0-0-0-0--8-8--8--8-8-8--8-8-8-8------|
     'You will get yours...' 'You will get yours...'

G|---------------------------------------------------------------------------|
D|---------------------------------------------------------------------------|
A|---0--0-0-0--0-0--0-0-0-0--3--3-3-3--3-3--3-3-3-3--------------------------|
E|---------------------------------------------------3--3-3-3--1-1-0-1-0-1---|
     'You have no right to ask me now...'            'and I have missed...'

G|---------------------------|
D|---------------------------|
A|---------------------------|
E|---3--3-3-3--1-1-0-1-0-1---|
    'I have missed...'


Chorus:
G|-------------------------------------------------------|
D|-------------------------------------------------------|
A|---7--7--7-7--3-3-3-3--5-5---7--7--7-7--3-3-3-3--5-5---| 
E|-------------------------------------------------------|
     'Cold Contagious...'      'All the mighty men...'


Bridge (bassicly the same as the verse & pre-chorus):
G|-------------------------------------------------------|
D|---------------------0----------------------0----0-----|
A|---7--7--7-7-7--7--0---0--3--3--3-3-3--3--0----0---0---| 
E|-------------------------------------------------------|
     'Paint your perfect day...' 'I don't mind this...'

G|-------------------------------------------------------|
D|-------------------------------------------------------|
A|-------------------------------------------------------|
E|---0-0--0--0-0-0--0-0-0-0--8-8--8--8-8-8--8-8-8-8------|
     'You will get yours...' 'You will get yours...'

G|-------------------------------------------------------|
D|-------------------------------------------------------|
A|-------------------------------------------------------|
E|---0-0--0--0-0-0--0-0-0-0--0-0--0--0-0-0--0-0-0-0------|
     'You will get yours...' 'You will get yours...'

G|-------------------------------------------------------|
D|-------------------------------------------------------|
A|---7~--7--3-3-3-3--5-5---7~--7--10-10-10-10-10-10------| 
E|-------------------------------------------------------|
   (I don't think this last bar is played but it fits)
Suggest correction
Give kudos to tab author, rate the tab!
1 2 3 4 5
comments
print report bad tab
guest
You may want to rate the tab now too:
select rating
Wanna post a correction for this tab? Suggest correction