Oops, an error
Loading. Please wait.

Everything Zen Bass Tab

version 3
version 3

Whole song

Interactive

by Bush
2,241 views 9 this week
2 commentsread comments
1 2 3 4 5
worth learning
x 3
add to favorites
launch autoscroll
font size
0
reset
guitar tuner
Tab Pro tools
  • play this tab
  • loop segment
  • change instrument
  • show fretboard
  • metronome
Autoscroll
slow
fast
+/-
esc
set tempo
stop
Contributor
Difficulty
novice
-------------------------------------------------------------------------------
			     EVERYTHING ZEN - Bush
-------------------------------------------------------------------------------

Tabbed By : Harley Fay
e-mail: wefay@charter.net

Tuning: Standard

Rest until :11 
Intro
G|--------------------|
D|--------------------|
A|-5-55-3-33----------|X3
E|-----------0030-00--|

G|-----------|
D|-----------|
A|-5-55-3-33-|
E|-----------|

VERSE
G|--------------|
D|--------------|
A|------5-5-777-|X3
E|-0030---------|

G|--------------|
D|--------------|
A|------5-3-333-|
E|-0030---------|

G|--------------------|
D|--------------------|
A|---------5-55-3-33--|X4
E|-0030-00------------|

CHORUS
G|------------------------------------------|
D|------------------------------------------|
A|------------------------------------------|X3
E|-5-5-555-1-11-1111-03b-03b-03b-03b03b03b0-|

G|--------------------|
D|--------------------|
A|---------5-55-3-33--|X2
E|-0030-00------------|

VERSE
G|--------------|
D|--------------|
A|------5-5-777-|X3
E|-0030---------|

G|--------------|
D|--------------|
A|------5-3-333-|
E|-0030---------|

G|--------------------|
D|--------------------|
A|---------5-55-3-33--|X4
E|-0030-00------------|

CHORUS
G|------------------------------------------|
D|------------------------------------------|
A|------------------------------------------|X3
E|-5-5-555-1-11-1111-03b-03b-03b-03b03b03b0-|

G|-------------------|
D|-------------------|
A|-------------------|
E|-5-5-555-1-11-1111-|

G|------------------|
D|------------------|
A|------------------|X3
E|-03b-03b-03b-03b0-|

G|-------------------------|
D|-------------------------|
A|-------------------------|
E|-03b-03b-03b-03b03b03b0--|

BRIDGE
G|------------------------------------|
D|------------------------------------|
A|-5-55-11------3-33-5-55-11----------|
E|---------3-33--------------33333333-|

G|--------------------------------------------|
D|--------------------------------------------|
A|-5-55-11------3-33-5-55-11-----111-----111--|
E|---------3-33--------------333-----333------|

SOLO
G|-----------------------------|
D|-----------------------------|
A|------------------5-55-3-33--|X4
E|-1212121212121212------------|
(Those are 12's not 1's and 2's)

QUIET PART
G|---------|
D|---------|
A|----5--3-|x12
E|-0-------|

CHORUS
G|------------------------------------------|
D|------------------------------------------|
A|------------------------------------------|X4
E|-5-5-555-1-11-1111-03b-03b-03b-03b03b03b0-|

REST

G|--------------------|
D|--------------------|
A|--------------------|X4
E|-5-5-555-1-11-1111--|

G|-------------------------------------------------|
D|-------------------------------------------------|
A|-------------------------------------------------|
E|-03b-03b-03b-03b-03b-03b-03b-03b-03b-03b-03b03b05|


| /  slide up
| \  slide down
| h  hammer-on
| p  pull-off
| b  bend
| ~  vibrato
| +  harmonic
| x  Mute note
===============================================================================
comments
We did not receive enough feedback on this tab! Please rate:
print report bad tab
1 2 3 4 5
2 comments total.
0 reply
lbra73 wrote on July 7 2012, 07:38 am

Accurate and nicely laid out, thanks!!!

0 reply
KennyM79 wrote on June 9 2015, 02:00 pm

Lack of formatting. Lack of accuracy. The 0-3s in the chorus don't contain any bends. This tab has bends, but is unclear where to bend to (because you don't).
If you need make a note to clarify 12s from 1s and 2s, then there is a problem with the formatting of your tab.

I want to post or [tab]
guest
You may want to rate the tab now too:
select rating
Please do not post tabs as comments. Select "correction" instead!