Oops, an error
Loading. Please wait.

Glycerin Tab

by Bush
6,343 views 18 this week
no commentswrite comment
1 2 3 4 5
please rate
add to favorites
launch autoscroll
font size
0
reset
how to read this tab
guitar tuner
Autoscroll
slow
fast
+/-
esc
set tempo
stop
Help us to improve Ultimate-Guitar.com Take our survey!
×
Author
#----------------------------------PLEASE NOTE--------------------------------#
#This file is the author's own work and represents their interpretation of the#
#song. You may only use this file for private study, scholarship, or research.#
#-----------------------------------------------------------------------------#
#-- File created with Instab - http://www.pconline.com/~smcarey/instab.html --#
#-----------------------------------------------------------------------------#

Author/Artist: Bush
Title: Glycerin

/ slide up
\ slide down
p pull off


Tuning (eb A D G B E), Down ~ 10%, (eb, D) Down ~ 20%
Live Standard Tuning, Down ~ 10%
Key: (D + C#)


------|--------------------|---|
------|--------------------|---|
------|--------------------|---|
------|---3----------------|---|
------|---3---15---17---13-|---|
------|-2-2-9-9-11-11-7-7--|---|
  
  
   Verse Palm Mute 




------|------------|
------|------------|
------|------------|
------|-3----------|
------|-3---17--13-|
------|-2---11--7--|
    

   Chorus Palm Mute




------|----------|--|--------|
------|----------|--|--------|
------|--7-------|--|-7------|
------|--7-------|--|-7------|
------|--5--8----|--|-5------|
------|-----7----|--|--------|
    

   Interlude Palm mute
Suggest correction
Give kudos to tab author, rate the tab!
1 2 3 4 5
comments
print report bad tab
guest
You may want to rate the tab now too:
select rating
Please do not post tabs as comments. Select "correction" instead!