Oops, an error
Loading. Please wait.
We have an official Glycerine tab made by UG professional guitarists. Check out the tab »
×
by Bush
15,181 views 3 this week
4 commentsread comments
1 2 3 4 5
x 9
add to favorites
guitar tuner
Autoscroll
slow
fast
+/-
esc
set tempo
stop
File Format
Filesize
Instruments
.ptb
33 Kb
lead_guitars
"Glycerine"
demo version
Play now

or get full version for Free

×
Get full version now!
Learn and play this song
in Tab Pro
Try for free

or get $10 off Welcome Bonus

Get welcome bonus
Get access to Tab Pro version of “Glycerine”!
Tab Pro is a premium guitar tab service, available on PC, Mac, iOS and Android
TRY FOR FREE
Your download will start in 7 seconds
×
Like this song? We have more! Follow us on Facebook for daily tips, lessons and other guitar-related content.
To download “Glycerine” Power tab click button below
Please note that you must have Power Tab software installed on your
computer in order to view this file.
Suggest correction
comments
report bad tab
4 comments total. Showing first comments.
+1 reply
breakingnirvana 72 Jan 21, 2007 04:28 AM

good tab

-1 reply
GrungeRocker29 10 Apr 04, 2009 11:54 AM

good tab indeed

0 reply
libnu76 10 Nov 03, 2012 02:22 PM

Great tab.

On the cello part in the chorus, I changed the fingerings to this

||------------------|--8--------------------|
||o-----------------|-----------------11----|
||------------------|-----------------------|
||------------------|-10---------------8----|
||o-8---------------|--7--------------------|
||------------------|------------8----------|

|--5---------------------|-6-------8---------||
|------------------------|------------------o||
|------------------------|---------5---------||
|--7---------------------|-8-----------------||
|--5---------------------|------------------o||
|--------------5---------|-6-----------------||
H H W


Can be done for the rest too. still not likely to be gone with one guitar, but easier to make sense of this way.

guest