Oops, an error
Loading. Please wait.

Glycerine Tab

version 4
version 4

Whole song

Interactive

by Bush
196,927 views 102 this week
28 commentsread comments
1 2 3 4 5
x 83
add to favorites
launch autoscroll
font size
0
reset
how to read this tab
guitar tuner
Autoscroll
slow
fast
+/-
esc
set tempo
stop
Help us to improve Ultimate-Guitar.com Take our survey!
×
----------------------------------------------------------------------------
                                 Glycerine
                                  by Bush
----------------------------------------------------------------------------
words and music by Gavin Rossdale.

here are the correct tabs for the greatest song ever. it's actually played
with two guitars, but it sounds fine on just one. here:

tuning: |E A D G B e|

e|----------------------------------------------------------------------------|
B|-----------------------------------3-----------------------5----------------|
G|--2--------2--------2-----5--------5--------5-----7--------7--------7\------|
D|--3--------3--------3-----5--------5--------5-----7--------7--------7\------|
A|--3--------3--------3--0--3--3--3--3--3--3--3--0--5--5--5--5--5--5--5\------|
E|--1--1--1--1--1--1--1-------------------------------------------------------|
     x  x     x  x           x  x     x  x           x  x     x  x
            must be your  skin     i'm sinking    in,      must be for real,

e|----------------------------------------------------------------------------|
B|-----------1----------------------------------------------------------------|
G|--3--------3--------3-------------------------------------------------------|
D|--3--------3--------3-------------------------------------------------------|
A|--1--1--1--1--1--1--1-------------------------------------------------------|
E|----------------------------------------------------------------------------|
     x  x     x  x      and so on. that's the verse. no here's the chorus:
  'cos now i can feel...

e|----------------------------------------------------------------------------|
B|-----------------------------------3-----------------------5----------------|
G|--2--------2--------2-----5--------5--------5-----7--------7--------7\------|
D|--3--------3--------3-----5--------5--------5-----7--------7--------7\------|
A|--3--------3--------3--0--3--3--3--3--3--3--3--0--5--5--5--5--5--5--5\------|
E|--1--1--1--1--1--1--1-------------------------------------------------------|
     x  x     x  x           x  x     x  x           x  x     x  x
                                            don't let the days go

e|----------------------------------------------------------------------------|
B|-----------1----------------------------------------------------------------|
G|--3--------3--------3-----2--2--2--2--2--2--x--x--5--5--x--x--3--3--3--x--x-|
D|--3--------3--------3-----3--3--3--3--3--3--x--x--5--5--x--x--3--3--3--x--x-|
A|--1--1--1--1--1--1--1-----3--3--3--3--3--3--x--x--3--3--x--x--1--1--1--x--x-|
E|--------------------------1--1--1--1--1--1----------------------------------|
     x  x     x  x
by...                     glycerine...                          glycerine...


e|----------------------------------------------------------------------------|
B|----------------------------------------------------------------------------|
G|--2--2--2--2--2--2--x--x--5--5--x--x--3--3--3-------------------------------|
D|--3--3--3--3--3--3--x--x--5--5--x--x--3--3--3-------------------------------|
A|--3--3--3--3--3--3--x--x--3--3--x--x--1--1--1-------------------------------|
E|--1--1--1--1--1--1----------------------------------------------------------|


and that's it. just listen to the song to get the rythm down, and to tell
when to play what. but it sounds really good when it's played like this.
just throw some medium distortion on your amp, and you're good to go. enjoy.

here's some lyrics:

must be your skin that i'm sinking in
must be for real 'cos now i can feel
and i didn't mind
it's not my kind
it's not my time to wonder why
everything gone white
and everything's grey
now you're here now you're away
i don't want this
remember that
i'll never forget where you're at
don't let the days go by
glycerine

i'm never alone
i'm alone all the time
are you at one
or do you lie
we live in a wheel
where everyone steals
but when we rise it's like strawberry fields

if i treated you bad
you bruise my face
couldn't love you more
you got a beautiful taste
don't let the days go by
could have been easier on you
i couldn't change though i wanted to
could have been easier by three
our old friend fear and you and me
glycerine
don't let the days go by
glycerine

i needed us more
when we wanted us less
i could not kiss just regress
it might just be
clear simple and plain
that's just fine
that's just one of my names
don't let the days go by
could've been easier on you
glycerine

************************************

| \  Slide down
| x  Dead note

************************************
Suggest correction
comments
print report bad tab
28 comments total. Showing first comments.
0 reply
sephiroth5789 10 Jun 30, 2004 12:00 AM

awesome tab good job sounds just like it

+1 reply
Drift 10 Aug 22, 2004 12:00 AM

Incomplete......you are missing the part where he sings "bad moon whine again".

+2 reply
SvB4EvA 10 Sep 27, 2004 12:00 AM

Drift, there is no guitar playing when he singing that part.

guest
You may want to rate the tab now too:
select rating
Wanna post a correction for this tab? Suggest correction