Oops, an error
Loading. Please wait.

Glycerine Tab

version 5
version 5

Whole song

Interactive

by Bush
976 views 1 this week
1 commentread comment
1 2 3 4 5
2 more votes to show rating
add to favorites
launch autoscroll
font size
0
reset
how to read this tab
guitar tuner
Autoscroll
slow
fast
+/-
esc
set tempo
stop
Help us to improve Ultimate-Guitar.com Take our survey!
×
Author
Difficulty
novice
Pretty much repeats through the entire song. Not sure if the 
guitarist switches to full chords or not after the intro but 
this sounds fine throughout the whole song either way. I will 
throw in a second riff also that you can play around with if 
you want to add in more power at any point in the song.

Let the A string ring as you play the whole riff and palm mute 
any strings you aren't playing as you go along. This simple 
riff just repeats throughout the entire song.

E|-1-1-1-1-1-1-1-1/3-3-3-3-3-3-3-3/5-5-5-5-5-5-5-5/1-1-1-1-1-1-1-1/|
A|-0-----0-----0---3-----3-----3---5-----5-----5---1-----1-----1---|
D|-----------------------------------------------------------------|
G|-----------------------------------------------------------------|
B|-----------------------------------------------------------------|
E|-----------------------------------------------------------------|

And for extra power!

E|-----------------------------------------------------------------|
B|-----------------------------------------------------------------|
G|-----------------------------------------------------------------|
D|-----------------5-----5-----5---7-----7-----7---3-----3-----3---|
A|-3-----3-----3---3-3-3-3-3-3-3-3/5-5-5-5-5-5-5-5\1-1-1-1-1-1-1-1-|
E|-1-1-1-1-1-1-1-1-------------------------------------------------|

This is the first tab I can ever remember submitting so please 
let me know what you think, if you have any comments, or would 
like help with a different song.

Best wishes,

  ~Gabriel Raiano~ nraiano at googlemail dot com
Suggest correction
Give kudos to tab author, rate the tab!
1 2 3 4 5
comments
print report bad tab
1 comment total.
0 reply
gncraiano 31 Feb 04, 2013 09:57 AM

You can also try bar chords for even more power.

E|-----------------------------------------------------------------|
B|-----------------------------------------------------------------|
G|-----------------5-----5-----5---7-----7-----7---3-----3-----3---|
D|-3-----3-----3---5-----5-----5---7-----7-----7---3-----3-----3---|
A|-3-----3-----3---3-3-3-3-3-3-3-3/5-5-5-5-5-5-5-5\1-1-1-1-1-1-1-1-|
E|-1-1-1-1-1-1-1-1-------------------------------------------------|

guest
You may want to rate the tab now too:
select rating
Wanna post a correction for this tab? Suggest correction