Oops, an error
Loading. Please wait.

Headful Of Ghosts Tab

version 2
version 2

Whole song

by Bush
270 views 1 this week
no commentswrite comment
1 2 3 4 5
please rate
add to favorites
launch autoscroll
font size
0
reset
how to read this tab
guitar tuner
Tab Pro tools
  • play this tab
  • loop segment
  • change instrument
  • show fretboard
  • metronome
×
Best way to learn
"Headful Of Ghosts"
Autoscroll
slow
fast
+/-
esc
set tempo
stop
Contributor
Difficulty
novice
Intro Riff:
e|----------------------------------------------------|
B|----------------------------------------------------|
G|-10-10-9--10-10-9--10-10-9--10-10-9--10-10-9--10-10-| 2
D|-10-10-10-10-10-10-10-10-10-10-10-10-10-10-10-10-10-| X
A|-8--8--8--8--8--8--8--8--8--8--8--8--8--8--8--8--8--|
E|----------------------------------------------------|

(Intro is played throughout this part)
Riff A:  (many times they'll play the F also an octave higher)
e|----------------------------------------------|
B|----------------------------------------------|
G|-----------------5------7---------------3-----|
D|-3---------------5------7---------------3-----|
A|-3---------------3------5---------------1-----|
E|-1--------------------------------------------|

e|-17-18-17-13-----18-13--17-18-17-13-----18-13-|
B|-------------13---------------------13--------|
G|----------------------------------------------|
D|----------------------------------------------|
A|----------------------------------------------|
E|----------------------------------------------|

Chorus Riff:
e|-------------|
B|-------------|
G|-10-9-7-9h10-|
D|-------------|
A|-------------|
E|-------------|

   A C
e|-----|
B|-----|
G|---5-|
D|-7-5-|
A|-7-3-|
E|-5---|

A C

Verse 1:
A
I stand around at American weddings 
C
I stand around for family 
A
At my best when I'm terrorist inside
C
At my best when it's all me
A
I was there when you took all the people 
C
I was alone in a mental ravine 
A
You breathe life when you break the walls down 
C
You breathe life when you set me free 

Chorus:
F                              C
Where is my head, where are my bones
                        D        A#
Why are my days so far from home
F                             C
Where is my head Where are my bones
                     D               A#
Can you save me from myself, can you save me from myself 

C A

Verse 2:
C
Free thinking, renegade social 
A
Mr Moon man now
C
Out the slipstream of my possibilities 
A
got the boat so we don't drown 
C
These are the days that I'm split down the middle 
A
No words to calm me down 
C
Be sure that what you dream of 
A
won't come to hunt you out 

Chorus:
F                             C
Where is my head, where are my bones
                         D        A#
Why are my days so far from home, ghostman
F                              C
Where is my head, where are my bones
                  D      A#
How come we get so lost, ghostman
F                             C
Where is my head where are my bones
                       D             A#
Can you save me from myself, can you save me from myself

   A     G# A
e|-----------------|
B|-----------------|
G|-----------------|
D|-7-7-7--6-7--7-7-|
A|-7-7-7--6-7--7-7-|
E|-5-5-5--4-5--5-5-|

   F A  (2nd guitar simultaniously plays chords octave higher)
e|-----|
B|-----|
G|-----|
D|-3-7-|
A|-3-7-|
E|-1-5-|

A G#/A

F A

A
I stand around at American weddings 
A
I stand around for family 
A
At my best when I'm terrorist inside
A
At my best when it's all me

Chorus:
F       C                   D      A#
Ghostman, how come we get so lost, Ghostman
F                             C
Where is my head, where are my bones
                       D             A#
Can you save me from myself, can you save me from myself
F                             C
Where is my head, where are my bones
                       D             A#
Can you save me from myself, 

F                              C
Where is my head, where are my bones
                               D
Where is my head, where are my bones

Where is my head, where are my bones

comments
We did not receive enough feedback on this tab! Please rate:
print report bad tab
1 2 3 4 5
I want to post or [tab]
guest
You may want to rate the tab now too:
select rating
Please do not post tabs as comments. Select "correction" instead!