Oops, an error
Loading. Please wait.

Hurricane Bass Tab

version 1
version 1

Whole song

Interactive

by Bush
106 views 1 this week
no commentswrite comment
1 2 3 4 5
3 more votes to show rating
add to favorites
launch autoscroll
font size
0
reset
guitar tuner
Autoscroll
slow
fast
+/-
esc
set tempo
stop
Help us to improve Ultimate-Guitar.com Take our survey!
×
Author
Verse
G|----------------|----------------|----------------|----------------|----------------|----------------|
D|----------------|----------------|----------------|----------------|----------------|----------------|
A|----------------|----------------|----------------|----------------|----------------|----------------|
E|7-7-5-7---7-5---|7-7-5-7---7-5---|7-7-5-7---7-5---|7-7-5-7---7-5---|7-7-5-7---7-5---|7-7-5-7---7-5---|
 4X

Verse/Chorus
G|----------------|----------------|----------------|----------------|
D|----------------|----------------|----------------|----------------|
A|------------5---|------------5---|------------5---|--5---4---4-4-4-|
E|7-7-5-7---7-----|7-7-5-7---7-----|7-7-5-7---7-----|----------------|
                                                                     |
G|----------------|----------------|----------------|----------------|
D|----------------|----------------|----------------|----------------|
A|3-3-3-3-3-3-3-3-|3-3-3-3-3-3-3-3-|----------------|----------------|
E|----------------|----------------|7-7-7-7-7-7-7-7-|7-7-7-7-7-7-7-7-|


Chorus
G|----------------|----------------|----------------|----------------|----------------|----------------|
D|----------------|----------------|----------------|----------------|----------------|----------------|
A|7-7---5--5---3--|--3-3-3-3-2-2-2-|7-7---5--5---3--|--3-3-3-3-2-2-2-|7-7---5--5---3--|--3-3-3-3-2-2-2-|
E|----------------|----------------|----------------|----------------|----------------|----------------|
                                   |
G|----------------|----------------|
D|----------------|----------------|
A|3-3-3-3-3-3-3-3-|3-3-3-3-3-3-3-3-|
E|----------------|----------------|


Verse
G|----------------|----------------|----------------|----------------|----------------|----------------|
D|----------------|----------------|----------------|----------------|----------------|----------------|
A|----------------|----------------|----------------|----------------|----------------|----------------|
E|7-7-5-7---7-5---|7-7-5-7---7-5---|7-7-5-7---7-5---|7-7-5-7---7-5---|7-7-5-7---7-5---|7-7-5-7---7-5---|
                                   |
G|----------------|----------------|
D|----------------|----------------|
A|----------------|----------------|
E|7-7-5-7---7-5---|7-7-5-7---7-5---|


Verse/Chorus
G|----------------|----------------|----------------|----------------|
D|----------------|----------------|----------------|----------------|
A|------------5---|------------5---|------------5---|--5---4---4-4-4-|
E|7-7-5-7---7-----|7-7-5-7---7-----|7-7-5-7---7-----|----------------|
                                                                     |
G|----------------|----------------|----------------|----------------|
D|----------------|----------------|----------------|----------------|
A|3-3-3-3-3-3-3-3-|3-3-3-3-3-3-3-3-|----------------|----------------|
E|----------------|----------------|7-7-7-7-7-7-7-7-|7-7-7-7-7-7-7-7-|


Chorus
G|----------------|----------------|----------------|----------------|----------------|----------------|
D|----------------|----------------|----------------|----------------|----------------|----------------|
A|7-7---5--5---3--|--3-3-3-3-2-2-2-|7-7---5--5---3--|--3-3-3-3-2-2-2-|7-7---5--5---3--|--3-3-3-3-2-2-2-|
E|----------------|----------------|----------------|----------------|----------------|----------------|
                                   |
G|----------------|----------------|
D|----------------|----------------|
A|3-3-3-3-3-3-3-3-|3-3-3-3-3-3-3-3-|
E|----------------|----------------|


Bridge
G|----------------|----------------|----------------|----------------|
D|----------------|----------------|----------------|----------------|
A|----------------|----------------|----------------|----------------|
E|7-7---2~--------|----------------|5-5---0~--------|----------------|


Solo
G|----------------|----------------|----------------|----------------|----------------|----------------|
D|----------------|----------------|----------------|----------------|----------------|----------------|
A|3-3-3-3-3-3-3-3-|3-3-3-3-3-3-3-3-|2-2-2-2-2-2-2-2-|2-2-2-2-2-2-2-2-|----------------|----------------|
E|----------------|----------------|----------------|----------------|3-3-3-3-3-3-3-3-|3-3-3-3-3-3-3-3-|
                                                                     |
G|----------------|----------------|----------------|----------------|
D|----------------|----------------|----------------|----------------|
A|3-3-3-3-3-3-3-3-|3-3-3-3-3-3-3-3-|2-2-2-2-2-2-2-2-|2-2-2-2-2-2-2-2-|
E|----------------|----------------|----------------|----------------|



Chorus
G|----------------|----------------|
D|----------------|----------------|   5X
A|7-7---5--5---3--|--3-3-3-3-2-2-2-|
E|----------------|----------------|


Outro
G|----------------|----------------|----------------|----------------|----------------|----------------|
D|----------------|----------------|----------------|----------------|----------------|----------------|
A|3-3-3-3-3-3-3-3-|3-3-3-3-3-3-3-3-|2-2-2-2-2-2-2-2-|2-2-2-2-2-2-2-2-|----------------|----------------|
E|----------------|----------------|----------------|----------------|3-3-3-3-3-3-3-3-|3-3-3-3-3-3-3-3-|
                                                                                         
              |
G|----------------|----------------|----------------|----------------|----------------|----------------|
D|----------------|----------------|----------------|----------------|----------------|----------------|
A|3-3-3-3-3-3-3-3-|3-3-3-3-3-3-3-3-|2-2-2-2-2-2-2-2-|2-2-2-2-2-2-2-2-|7~--------------|----------------|
E|----------------|----------------|----------------|----------------|----------------|----------------|
Suggest correction
Give kudos to tab author, rate the tab!
1 2 3 4 5
comments
print report bad tab
guest
You may want to rate the tab now too:
select rating
Wanna post a correction for this tab? Suggest correction