Oops, an error
Loading. Please wait.

Inflatable Tab

version 4
version 4

Whole song

Interactive

by Bush
8,767 views 9 this week
no commentswrite comment
1 2 3 4 5
excellent!
x 5
add to favorites
launch autoscroll
font size
0
reset
how to read this tab
guitar tuner
Tab Pro tools
  • play this tab
  • loop segment
  • change instrument
  • show fretboard
  • metronome
×
Best way to learn
"Inflatable"
Autoscroll
slow
fast
+/-
esc
set tempo
stop
Contributor
Difficulty
Bush
Inflatable
Golden State
tabbed by Rocker_Couture

The first notes of every measure should match the root of the chords. The chords should 
on the root of every measure. Pay careful attention to when Guitar II comes in and out 
what parts it plays.

Guitar II
Verse:
e|---------------------------|--------------------------|
b|-----10----10----10--------|-----10----10----10-------|
g|--------11----11-----------|--------11----11----------|
d|---0-----------------------|--------------------------|
a|---------------------------|---9----------------------|
e|---------------------------|--------------------------|

e|---------------------------|--------------------------|
b|-----10----10----10--------|--------------------------|
g|--------9------9-----------|------12-----12-----12----|
d|---------------------------|----------12-----12-------|
a|---0-----------------------|---10---------------------|
e|---------------------------|--------------------------|

Guitar II
Pre-Chorus
e|---------------------------|--------------------------|
b|------10----10----10-------|-----10------10-----10----|
g|---------11----11----------|---------11------11-------|
d|---0-----------------------|--------------------------|
a|---------------------------|---9----------------------|
e|---------------------------|--------------------------|

e|---------------------------|--------------------------|
b|-----10----10---10---------|------12----12----12------|
g|--------9-----9------------|---------12----12---------|
d|---------------------------|--------------------------|
a|---0-----------------------|---10---------------------|
e|---------------------------|--------------------------|

Guitar II
Interlude
e|---------------------------|--------------------------|
b|-----10----10----10--------|-----10----10-------------|
g|--------11----11-----------|--------11----------------|
d|---0-----------------------|--------------------------|
a|---------------------------|---9----------------------|
e|---------------------------|--------------------------|

Guitar I
Verse 1:

         D
Let it slide
    F#m
Overhead
          A
When I believe in you
             G
My soul can rest
         D
But our love  (Guitar II plays Verse & Pre-Chorus)
            F#m
It's really love
            A
It never fails
              G
But fail it does
          D
When we shine
         F#m
Like the sun
               A
You seem the only one
           G
My only friend

Chorus 1:(Guitar II OUT)

Em                       C
  You're so pretty in white
                      Em
Pretty when you're faithful
               C
So pretty in white
                      Am
Pretty when you're faithful
               Em
When you're faithful

(Guitar II plays Interlude)

Verse 2:(Guitar II plays Verse & Pre-Chorus)

      D
I resigned
       F#m
From myself
        A
Took a break
             G
Was someone else
 D                    F#m
It's like I've come undone
                      A
And I've only just become
    G
Inflatable for you

Chorus 2:(Guitar II OUT)

Em                      C
  You're so pretty in white
                       Em
Pretty when you're faithful
               C
So pretty in white
                       Em
Pretty when you're faithful
               C
So pretty in white
                      Am
Pretty when you're faithful
               F            Em (strum backwords)
When you're faithful

Solo:
e|--------------------------------------------------------------------------|
b|--------------------------------------------------------------------------|
g|---------------------------------------------7-7-7\6-6/7(v)---------------|
d|-------7(v)---7-7-7\5-4-5--4-4--4-5/7-----------------------2-4/5---------|
a|--------------------------------------------------------------------------|
e|--------------------------------------------------------------------------|

Verse 3:

         D
I don't mind
             F#m
Most of the time
                 A
But you push me so (Guitar II plays the last two measures of Pre-Chorus)
      G
Far inside

Chorus 3:(Guitar II OUT)

Em                      C
  You're so pretty in white
                      Em
Pretty when you're faithful
               C
So pretty in white
                      Em
Pretty when you're faithful
               C
So pretty in white
                      Em
Pretty when you're faithful
               C
So pretty in white
                       Am
Pretty when you're faithful
                F
When you're faithful
                 Em  (strum backwords)
When you're faithful

I tried my best to tab out the last part of the choruses. My guitar is a little flat due 
needing new strings. Send me a message if you have any questions, comments, or 
Rocker_Couture :P

P.S. Good tip! DO NOT tab your entries in WordPad or NotePad computer programs. It 
up the whole tab!!!!!
comments
print report bad tab
I want to post or [tab]
guest
You may want to rate the tab now too:
select rating
Please do not post tabs as comments. Select "correction" instead!