Oops, an error
Loading. Please wait.

Insect Kin Bass Tab

by Bush
174 views 1 this week
no commentswrite comment
1 2 3 4 5
please rate
add to favorites
launch autoscroll
font size
0
reset
guitar tuner
Tab Pro tools
  • play this tab
  • loop segment
  • change instrument
  • show fretboard
  • metronome
Autoscroll
slow
fast
+/-
esc
set tempo
stop
Contributor
Difficulty
intermediate
-------------------------------------------------------------------------------
			     Insect Kin - Bush
-------------------------------------------------------------------------------

Tabbed By : Thron3s

Tuning: Standard.

:00
Intro:
G|-----------|
D|-----------|
A|-----------| *(Constantly repeat until you hear the change. 
E|-----5-----|  I'm not going to tab it note for not since it 
                doesn't change.)

:23
Verse:
G|----------------------------------------------------------------|
D|----------------------------------------------------------------| (x5)
A|----------------------------------------------------------------|
E|5-5-5-5-5-5-5-5-3-3-3-3-3-3-3-3-5-5-5-5-5-5-5-5-1-1-1-1-1-1-1-1-|

1:01
Chorus:
G|----------------------|     *NOTE (Each fill is played slightly differently throughout
D|----------------------| (x2) the song, this is a rough outline of the first fill to give
A|-----3-3-2-2-2-3-2----|      an idea for where he's playing.)
E|5555---------------3--|

For the third repetition of the Chorus:

G|-----|
D|-----|
A|-----|
E|5555-|

Rest after without a fill. Repeat the first part twice after.

1:20                         
Verse:
G|----------------------------------------------------------------|
D|----------------------------------------------------------------| (x5)
A|----------------------------------------------------------------|
E|5-5-5-5-5-5-5-5-3-3-3-3-3-3-3-3-5-5-5-5-5-5-5-5-1-1-1-1-1-1-1-1-|

2:04
Chorus:
G|----------------------|     
D|----------------------| 
A|-----3-3-2-2-2-3-2----|      
E|5555---------------3--|

G|-----|
D|-----|
A|-----|
E|5555-|

G|-----|
D|-----|
A|-----|
E|5555-|

G|----------------------|     
D|----------------------| (x3)
A|-----3-3-2-2-2-3-2----|      
E|5555---------------3--|

2:06
Bridge:
G|------------------------------------------|
D|------------------------------------------| (x2)
A|------------------------------------------|
E|-2-0-3-33-2-22-0-3-3--2-0-3-33-2-22-0-3-3-|

2:34 - 3:07
G|-----------------|
D|-----------------|
A|-----------------|
E|-3-4-5-3-4-5-3-5-|

3:07 - 3:10
G|-----------------|-----|
D|-----------------|-----|
A|-----------------|-----|
E|-3-4-5-3-4-5-3-5-|-*0~~|

3:10 - 4:26 (Fade out w/ Random Noise at the End)
Outro:
G|-----------|
D|-----------| 
A|------3~~--|
E|-*0~~------|

End on Low E


| /  slide up
| \  slide down
| h  hammer-on
| p  pull-off
| ~  vibrato
| +  harmonic
| x  Mute note
===============================================================================
comments
We did not receive enough feedback on this tab! Please rate:
print report bad tab
1 2 3 4 5
I want to post or [tab]
guest
You may want to rate the tab now too:
select rating
Please do not post tabs as comments. Select "correction" instead!